==================================
"You Talk A Lot"
==================================
album _Greetings From The Gutter_
(Dave Stewart, 1994)

written by David A. Stewart

Lou Reed: guitar solo
==================================


        You laugh a lot, yes, you -
        - talk a lot, oh, you -
        - never stop, no, you -
        - never stop, but you -
        - Never talk about the way you feel
        The way we make each other feel

        You celebrate
        and cut a cake, oh, you -
        - couldn't wait, no, you -
        - couldn't wait, but you -
        - Never thought about the way I'd feel
        The way you made somebody feel

        Do you believe in all you hear
        your husband's sick, your sister's queer
        your mouth is full of shaky teeth
        from dreams that make you disbelieve
        That all I've ever said and done
        was wish you well and have some fun

        Have some fun
        have some fun



intro   synthesizer

        {Em}{Em}{F#7-9}{F#7-9}
        {Bm}{Bm+7}{D}{Cmaj7}
        {Bm7}{G}{G/G.A}

        {Em}{Em}{F#7-9}{F#7-9}  (You laugh a lot, yes, you ...)
        {Bm}{Bm+7}{D}{Cmaj7}    (Never talk about the way you feel)
        {Bm7}{G}{G/G.A}         (The way we make each other feel)

g.solo  {Em}{Em}{F#7-9}{F#7-9}  guitar solo by Dave Stewart
        {Am}{Am}{B}{B}
        {Em}{Em}{F#7-9}{F#7-9}
        {Am}{Am}{B}{B}

        {Em}{Em}{F#7-9}{F#7-9}  (You celebrate, and cut a cake, ...)
        {Bm}{Bm+7}{D}{Cmaj7}    (never thought about the way ...)
        {Bm7}{G}{G/G.A}         (The way you made somebody feel)

sax     {Em}{Em}{F#7-9}{F#7-9}
        {Bm}{Bm+7}{D}{Cmaj7}
        {Bm7}{G}{G/G.A}

bridge  {Dm}{Dm}{Dm+5}{Dm+5}    (Do you believe in all you hear ...)
        {Dm6}{Dm6}{C}{C}        (- all I've ever said and done ...)
        {A#}{A#}{A7}{A7}        (- fun, have some fun)

g.solo  {Em}{Em}{F#7-9}{F#7-9}  * guitar solo by Lou Reed
        {Bm}{Bm+7}{D}{Cmaj7}
        {Bm7}{G}{G/G.A}

        {Em}{Em}{F#7-9}{F#7-9}
        {Bm}{Bm+7}{D}{Cmaj7}
        {Bm7}{G}{G/G.A}
        .... fade out




* intro and riff

   {Em}                {Em}
1e ---------------------------------------
2B ---------------------------------------
3G --------0------------------------------
4D ------2--------------------------------
5A ----2----------------------------------
6E --0------------------------------------

 {F#7-9}             {F#7-9}
---------------------------------------
---------------------------------------
--------0------------------------------
------2--------------------------------
----1----------------------------------
--2------------------------------------

 {Bm}               {Bm+7}
---------------------------------------
--------3------------------3-----------
------4------------------3-------------
----4------------------4---------------
--2------------------2-----------------
---------------------------------------

 {D}                {Cmaj7}
--------2------------------0-----------
------3------------------0-------------
----2----------------------------------
--0--------------------2---------------
---------------------3-----------------
---------------------------------------

 {Bm7}              {G}                {G        / G . A}
----------------------------------------------------------
--------3------------------0------------------0--------x--
----2-2------------------0------------------0----------x--
-----------------------0------------------0------------x--
--2----------------------------------------------------x--
---------------------3------------------3--------------x--



* Dave Stewart's guitar solo

   {Em}             {Em}
1e --12--------------------12------12-----
2B --15b17-----------------15b17---15b17--
3G ---------------------------------------
4D ---------------------------------------
5A ---------------------------------------
6E ---------------------------------------

 {F#7-9}             {F#7-9}
--12-----------------------------------
--15b17v-------------------------------
---------------------------------------
---------------------------------------
---------------------------------------
---------------------------------------

 {Am}                {Am}
--5v-----------------------------------
--5v-----------------------------------
--5v------------7p5-7/9v---------------
----------------------------------7-9--
-(tremolo arm)------------------9------
---------------------------------------

{B}                 {B}
------------------------------------0--
------------------------------------0--
------------------4--4-----------------
--9v--------------4--4-----------------
----------------0-2--0-----------------
----------------------------3v---2v----


 {Em}            {Em}
-----------------------------------------------------
------------8v--x-----------------8---8-10b12-10b12--
--/9--9-9v----------------7-9-9v----9----------------
----------------------7/9----------------------------
-----------------------------------------------------
-----------------------------------------------------

 {F#7-9}                  {F#7-9}
-----------10-----------------------------------
--10b12v------10-10b12v-------------------------
------------------------------------------------
---------------------------------5/7-x-7-7/9v---
------------------------------------------------
------------------------------------------------

 {Am}                 {Am}
------------------------------------------------------
------------------------------------------------------
-------------------------------5-7b9-7b9-7b9v--9r7-7--
--9/10v---9v---7--5--7-7v-----------------------------
------------------------------------------------------
------------------------------------------------------

 {B}                {B}
---------------------x--7-7-7---7-7-7---7-7-7-------
---------------------x--7-7-7---7-7-7---7-7-7---7\--
--7-7/8-----------------------------------------8\--
----------------------------------------------------
----------------------------------------------------
----------------------------------------------------



* bridge

  Do you believe ...   your husband's sick ...
    {Dm}               {Dm}
1e --1--------1-0-------1--------1-0------
2B --3------------3-----3------------3----
3G --2--------------2---2--------------2--
4D --0------------------0-----------------
5A ---------------------------------------
6E ---------------------------------------

 your mouth is ...   from dreams that make you ...
 {Dm+5}             {Dm+5}
--1--------1-0-------1--------1-0------
--3------------3-----3------------3----
--3--------------3---3--------------3--
--0------------------0-----------------
---------------------------------------
---------------------------------------

- all I've ever ...  was wish you well and have some -
 {Dm6}              {Dm6}
--1--------1-0-------1--------1-0------
--3------------3-----3------------3----
--4--------------4---4--------------4--
--0------------------0-----------------
---------------------------------------
---------------------------------------

- fun                         Have some -
 {C}                {C}
---------------------------------------
--1...---------------1...--------------
--0...---------------0...--------------
--2...---------------2...--------------
--3...---------------3...--------------
---------------------------------------

- fun                         Have some -
 {A#}               {A#}
---------------------------------------
--3...---------------3...--------------
--3...---------------3...--------------
--3...---------------3...--------------
--1...---------------1...--------------
---------------------------------------

- fun
 {A7}               {A7}
---------------------------------------
--2...---------------2...--------------
--0...---------------0...--------------
--2...---------------2...--------------
--0...---------------0...--------------
---------------------------------------



* Lou Reed's guitar solo

    {Em}                {Em}
1e --------14-b15-r14-------------------------
2B --12------------------12-12------12-12/14--
3G -------------------------------------------
4D -------------------------------------------
5A -------------------------------------------
6E -------------------------------------------

 {F#7-9}               {F#7-9}
-------------------------------------------
--14--14/15--15--/17--14-14-------------7--
-------------------------------------------
-------------------------------------------
-------------------------------------------
-------------------------------------------

 {Bm}                    {Bm+7}
-----9-b10-r9------9b10r9-------------------
--7------------7-7--------7---7---7-7-7/10--
--------------------------------------------
--------------------------------------------
--------------------------------------------
--------------------------------------------

 {D}                  {Cmaj7}
---------------------------------------------
--10--10...------------/12--12------\8-8-8\--
---------------------------------------------
---------------------------------------------
---------------------------------------------
---------------------------------------------

 {Bm7}               {G}                {G        / G . A}
---------------5b6r5--------------------------------------
--3--3----3-----------3--3---------------3-------------/--
----------------------------------------------------------
----------------------------------------------------------
----------------------------------------------------------
----------------------------------------------------------

... repeat and fade out



*** please note ***

h - hammer on
p - pull off
b - bend string up
r - release bend
/ - slide up
\ - slide down
v - vibrato
^ - harmonics




*********************************************************************
transcribed by Shiroh KOUCHI (wildside@mx21.tiki.ne.jp)
http://ww21.tiki.ne.jp/~wildside/
*********************************************************************