=================================================
"Wildwood Flower" /
"Jessie James" /
"The Sinking Of The Reuben James"
=================================================
rehearsal
(Lou Reed/Nico, 1970)

written by
trad. ("Wildwood Flower")
trad. ("Jessie James")
Woody Guthrie ("The Sinking Of The Reuben James")

Apr 1970
hotel room, NYC
=================================================



        please post lyrics to
        wildside@mx21.tiki.ne.jp



* all the strings downtuned a whole-tone
* note: this song has different pitch
(NOT "A=440Hz". about a half note down).
so total "1 + 1/2" tone down.
This tuning pitch is same as "Little Queenie",
 "Little Sister (take 3 and 4)".

 1d ----- * downtuned a whole-tone (from e to d)
 2A ----- * downtuned a whole-tone (from B to A)
 3F ----- * downtuned a whole-tone (from G to F)
 4C ----- * downtuned a whole-tone (from D to C)
 5G ----- * downtuned a whole-tone (from A to G)
 6D ----- * downtuned a whole-tone (from E to D)



"Wildwood Flower" (instrumental)

        {C/G}{C}{C/G}{G}
        {G/
        {C}{F/G}{C}{G}
        {C..



"Jessie James"

        {C}{F/C}{C}{G}     (Jessie James was a man who killed ...)
        {C/                (Age -)
        {C}{F}{C/G}{C}     (- 21, he togerther ......)



"The Sinking Of The Reuben James"

        {C/G}{F/{C}        ('bout a ship called good Reuben James)

        {C}{G.             (Da-da-da-da, like my sweet ...)




* "Wildwood Flower" (all the strings downtuned a whole-tone)

     {C         / G}      {C}
*1d --------------------------------------------
*2A --1-----------0--------1-----------1--------
*3F --0-------0---0--------0-------0------------
*4C --2---0h2-----0--------2---0h2--------------
*5G --3-----------2---0-2--3---------------0-2--
*6D --------------3-----------------------------

 {C         / G}      {G}
--------------------------------------------
--1-----------0--------0--------------------
--0-------0---0--------0-------0---0--------
--2---0h2-----0--------0---0h2--------------
--3-----------2--------2--------------------
--------------3---0-2--3---------------0-2--

 {G /
-----------
--0--------
--0--------
--0--------
--2---0-2--
--3--------

 {C}                  {F        / G}
--------------------------------------------
--1-----------1----------1-1h3--------------
--0-------0--------------------2--0-0-------
--2---0h2---------0----3--------------------
--3-------------3---0------------------0-2--
--------------------------------------------


 {C}                     {G}
------------------------------------------------------
--1-----------1--------------------0-0-0--0-0-0-------
--0-------0h2-----0---x------------0-0-0--0-0-0-------
--2---0h2---------2---x---0-0-0-0--0-2-0--0-2-0-------
--3---------------3---x---2-2-2-2----------------0-2--
--------------------------3-3-3-3---------------------

 {C..
-------------------
--1----------------
--0-------0h2------
--2---0h2----------
--3----------------
-------------------



*** please note ***

h - hammer on
p - pull off
b - bend string up
r - release bend
/ - slide up
\ - slide down
v - vibrato
^ - harmonics




*********************************************************************
chords/tabs transcribed by Shiroh KOUCHI (wildside@mx21.tiki.ne.jp)
http://ww21.tiki.ne.jp/~wildside/
*********************************************************************