========================
"Wild Angel"
========================
album _Wild Angel_
(Nelson Slater, 1976)

written by Nelson Slater

Lou Reed:
produce, piano, guitar
========================


        You've entered the magic kingdom
        great goodbye gambler, legendary son
        King of clouds, important rambler
        stooping down to conquer everyone

        Somewhere a card has been turned
        out there a star no longer burns
        Your face has never been clear
        but I'm caught in the thought of having you here

        Wild angel, child no more
        wild angel, the most original person I know
        Wild angel, gonna keep calling you, calling you
        wild angel, come back home

        When I think of revenge
        my heart does hurt
        Then I see you again
        and I button up my shirt

        I do suffer for my sins
        with you my suffering begins
        Your face has never been clear
        and I'm caught in the thought of having you here

        Wild angel, child no more
        wild angel, should have been back a long time before
        Wild angel, gonna keep calling you, calling you
        calling you, calling you, come back home
        Calling you, calling you, come back home
        calling you, calling you, come back home
        Calling you, calling you, come back home
        calling you, calling you, come back home
        Calling you, calling you, come back home
        calling you, calling you, come back home
        Calling you, calling you, come back home
        calling you, calling you, come back home



intro   {A}{A}{A}{A}
        {A}{A}{A}{A}
        {D}{D}{A}{A}
        {D}{D}{A}{A}
        {D/A}{D/A}{D/A}{E}
        {D/A}{D/A}{D/A}{E}
        {E}

        {Am}{Am+7}{Am7}{D7}                (You've entered the ...)
        {Am}{Am+7}{Am7}{D7}                (- clouds, important ...)

        {F/C}{G}{F/C}{G}                   (-where a card has ...)
        {F/C}{G}{F/C}{G}                   (- face has never ...)

chorus  {C/A#.F}{C/A#.F}{C/A#.F}{C/A#.F}   (- angel, child no ...)
        {C/A#.F}{C/A#.F}{C/A#.F}{F/E}      (- angel, gonna keep ...)

        {Am}{Am+7}{Am7}{D7}                (When I think of ...)
        {Am}{Am+7}{Am7}{D7}                (Then I see you ...)

        {F/C}{G}{F/C}{G}                   (- do suffer for my ...)
        {F/C}{G}{F/C}{G}                   (- face has never ...)

chorus  {C/A#.F}{C/A#.F}{C/A#.F}{C/A#.F}   (- angel, child no ...)
        {C/A#.F}{C/A#.F}{C/A#.F}{C/A#.F}   (- angel, gonna keep ...)
        {C/A#.F}{C/A#.F}{C/A#.F}{C/A#.F}   (Calling you ...)
        {C/A#.F}{C/A#.F}{C/A#.F}{C/A#.F}   (Calling you ...)
        {C/A#.F}{C/A#.F}{C/A#.F}{C/A#.F}   (Calling you ...)
        {C/A#.F}{C/A#.F}{C/A#.F}{C/A#.F}
        ... fade out




* intro

     {A}                            {A}
 1e ---------------------------------------------------------------
 2B ------------------------10v---------------------------2h3-2----
 3G ------------------------------------------------------2---2----
 4D ------------------------------------------------------2---2----
 5A ---------------------------------------------------------------
 6E ---------------------------------------------------------------

 {A}                                   {A}
------------------------------------------------------------------
------------------------------------------------------------------
------------------------------------------------------------------
----------5-x-----5-x-5-x-5h7p5h7p5h7-----------------------------
------5h7-----5h7---------(--trill--)-----------------------------
--3h5-------------------------------------------------------------

 {A}                             {A}
------------------------------------------------------------------
------------------------------------------------------------------
----------------------5b6---------------------5b6-5b6-5b6---------
--------------------------7v------------------------------7v------
------5-x-7-x-5-x-7-x-----------------5-x-7-x---------------------
--3h5-----------------------------3h5-----------------------------

 {A}                                   {A}
------------------------------------------------------------------
------------------------------------------------------------------
------------------------------------------------------------------
----------5-x-----5-x-5-x-5h7p5h7p5h7-----------5-x-----5-x-7v----
------5h7-----5h7---------(--trill--)-------5h7-----5h7-----------
--3h5-----------------------------------3h5-----------------------

 {D}                    {D}
--5----------------------5---------------------
-----------7-----------------------7-------7---
---------------7---7-------------------7-------
-----------------------------------------------
-----------------------------------------------
-----------------------------------------------

 {A}                    {A}
-----------------------------------------------
--5----------------------5---------------------
-----------6-----------------------6-----------
---------------------------------------7-------
-----------------------------------------------
-----------------------------------------------

 {D}                    {D}
--5----5-----------------5----5----------------
-----------7-----------------------7-----------
---------------7---7-------------------7---7---
-----------------------------------------------
-----------------------------------------------
-----------------------------------------------

 {A}                    {A}
-----------------------------------------------
--5----5-----------------5----5----------------
-----------6-----------------------6-----------
---------------7---7-------------------7-------
-----------------------------------------------
-----------------------------------------------

 {D      / A}             {D      / A}
----------------------------------------------
--7h8-7----2h3-2-----------7h8-7----2h3-2-----
--7---7----2---2-----------7---7----2---2-----
--7---7----2---2-----------7---7----2---2-----
----------------------------------------------
----------------------------------------------

 {D         / A}          {E}
----------------------------------------------
--7h8-7-------2h3-2----2---9-9-9-9--9-9-9-9---
--7---7-------2---2----2---9-9-9-9--9-9-9-9---
--7---7-------2---2----2---9-9-9-9--9-9-9-9---
---------------------------7-7-7-7--7-7-7-7---
----------------------------------------------

 {D      / A}             {D      / A}
----------------------------------------------
--7h8-7----2h3-2-----------7h8-7----2h3-2-----
--7---7----2---2-----------7---7----2---2-----
--7---7----2---2-----------7---7----2---2-----
----------------------------------------------
----------------------------------------------

 {D         / A}          {E}
---------------------------------------------
--7h8-7-------2h3-2----2---9-9-9-9--9-9-9-9--
--7---7-------2---2----2---9-9-9-9--9-9-9-9--
--7---7-------2---2----2---9-9-9-9--9-9-9-9--
---------------------------7-7-7-7--7-7-7-7--
---------------------------------------------

 {E}
--------------------
--9-9-9-9--9-9-9-9--
--9-9-9-9--9-9-9-9--
--9-9-9-9--9-9-9-9--
--7-7-7-7--7-7-7-7--
--------------------



* verse

     You've entered      the magic kingdom            great good-
     {Am}                       {Am+7}
 1e ----------------------------------------------------------
 2B --1...------------------------1---------------------------
 3G --2...------------------------1----------x-7b9r7-5-7b9-\--
 4D --2...------------------------2---------------------------
 5A --0...------------------------0---------------------------
 6E ----------------------------------------------------------

-bye gambler,       legendary son                  King of -
 {Am7}                       {D7}
-------------------------------3-2------------------------
--1...-------------------------1-1------------------------
--0...-------------------------2-2------------------------
--2...-------------------------0-0------------------------
--0...----------------------------------------------------
----------------------------------------------------------

....



*** please note ***

h - hammer on
p - pull off
b - bend string up
r - release bend
/ - slide up
\ - slide down
v - vibrato
^ - harmonics




*********************************************************************
transcribed by Shiroh KOUCHI (wildside@mx21.tiki.ne.jp)
http://ww21.tiki.ne.jp/~wildside/
*********************************************************************