=====================================================
untitled
(untitled/unknown tracks from the play _Time Rocker_)
=====================================================
from the play _Time Rocker_
(Robert Wilson/Darryl Pinckney/Lou Reed, 1996)

written by Lou Reed

performed by Lou Reed (taped guitar solos),
German musicians

Jun 11, 1996
Thalia Theater, Hamburg, Germany
(pre-premiere)
=====================================================


[untitled #1 (band): scene 1c]

                 ...A}   fade in
        {A}{F#m}{F}{A}
        {A}{F#m}{F}{A}
        {A}{F#m}{F}{A}   dialogue in German
        {A}{F#m}{F}{A}   ...
        {A}{F#m}{F}{A}
        {A}{F#m}{F}{A}
        {A}{F#m}{F}{A}
        {A}{F#m}{F}{A}
        {A}{F#m}{F}{A}
        {A}{F#m}{F}{A}
        {A}{F#m}{F}{A}
        {A}{F#m}{F}{A}
        {A}{F#m}{F...



---------------------------------------------------------------------



[untitled #2 (guitar chord solo): scene 2]

        {G}{E}{G}{E}   dialogue in German

        {G...          dialogue in German

        {G...          dialogue in German



---------------------------------------------------------------------



[untitled #3 (same as untitled #1): scene 3]

                 ...A}   fade in
        {A}{F#m}{F}{A}
        {A}{F#m}{F}{A}   humming
        {A}{F#m}{F}{A}   ...
        {A}{F#m}{F}{A}
        {A}{F#m}{F}{A}   dialogue in German
        {A}{F#m}{F}{A}   ...
        {A}{F#m}{F}{A}
        {A}{F#m}{F}{A}   humming
        {A}{F#m}{F}{A}   ...
        {A}{F#m}{F}{A}   dialogue in German
        {A}{F#m}{F}{A}   ...
        {A}{F#m}{F}{A}   humming
        {A}{F#m}{F}{A}   dialogue in German
        {A}{F#m}{F}{A}   ...
        {A}{F#m}{F}{A}
        {A}{F#m}{F}{A}
        {A}{F#m}{F}{A}   humming
        {A}{F#m}{F}{A}   ...
        {A}{F#m}{F}{A}
        {A}{F#m}{F}{A}
        {A}{F#m}{F}{A}
        {A}{F#m}{F}{A}
        {A}{F#m}{F}{A}
        {A}{F#m... fade out



---------------------------------------------------------------------



[untitled #4 (band): scene 6]

riff    {Am}{Am}{Am}{Am}
        {Am}{Am}{Am}{Am}
        {Am}{Am}

        {Am}{Am}{Am}{Am}   dialogue in German
        {Am}{Am}{Am}{Am}   ...
        {Am}{Am}{Am}{Am}   ...
        {Am}{Am}{Am}{Am}   ...
ad-lib  {Am}{Am}{Am}{Am}   ...
        {Am}{Am}{Am}{Am}   ...
        {Am}{Am}{Am}{Am}   ...
        {Am}{Am}{Am}{Am}   ...
        {Am}{Am}{Am}{Am}   ...
        {Am}{Am}{Am}{Am}   ...
        {Am}{Am}{Am}{Am}   ...
        {Am}{Am}{Am}{Am}   ...
        {Am}{Am}{Am}{Am}   ...
        {Am}{Am}{Am}{Am}   ...
        {Am}{Am}{Am}{Am}   ...
        {Am}{Am}{Am}{Am}   ...
        {Am}{Am}{Am}{Am}   ...
        {Am}{Am}{Am}{Am}   ...
        {Am... fade out



* single note play: riff (palm mute)

     {Am}               {Am}
 1e ---------------------------------------
 2B --x-5-5-5--5-5-5-5---5-6-6-6--6-6-6-6--
 3G ---------------------------------------
 4D ---------------------------------------
 5A ---------------------------------------
 6E ---------------------------------------

 {Am}               {Am}
---------------------------------------
--6-5-5-5--5-5-5-5---4-4-4-4--4-4-4-4--
---------------------------------------   ...
---------------------------------------
---------------------------------------
---------------------------------------




* single note play: ad-lib scale

            3   4   5   6   7   8   9  10  11  12  13
1e ... -|---|---|-o-|---|-o-|-o-|---|-o-|---|---|---|- ...
2B ... -|---|---|-o-|-o-|---|-o-|---|-o-|---|-o-|-o-|- ...
3G ... -|---|-o-|-o-|---|-o-|---|-o-|-o-|---|-o-|---|- ...
4D ... -|---|---|-o-|---|-o-|---|-o-|---|---|---|---|- ...
5A ... -|---|---|-o-|---|-o-|---|---|---|---|---|---|- ...
6E ... -|---|---|---|---|---|---|---|---|---|---|---|- ...



---------------------------------------------------------------------



[untitled #5 (guitar solo and drums): scene 6]

        {x...    scratch

        {Em...   guitar solo key in Em

        {E...    guitar solo key in E

        {Em..    guitar solo key in Em

        {x...    scratch

        {Em..    guitar solo key in Em

        {x...    drum roll

        {A}{A}   guitar and drum




     {Em...
 1e --------------------------------------------------------------
 2B ----5-5v----5/7-----------------------------------------------
 3G --4-------------5v-------x----0-3-3v----3/5-5v----4-4v-----x--
 4D --------------------------------------------------------------
 5A --------------------------------------------------------------
 6E --------------------------------------------------------------

 {Em...
-----------------------------------------------------------------
--------------------3--------------------------------------------
--0-3-3v------2---3---2/5v--------x------------------------------
-----------------------------------------------------------------
-----------------------------------------------------------------
-----------------------------------------------------------------

 {Em...
---------------------------------------------------0-------------
----5-5-----5-5-------3-3v----------5-----5------0---------------
--4-------4-----4---4-----------5/6---4/5---5\4------------------
-----------------------------------------------------2-----------
-----------------------------------------------------------------
-----------------------------------------------------------------

 {E...
----7---7---7----5---5---5----4---4---4--4/5-5v------------------
--0---0---0----0---0---0----0---0---0----------------------------
-----------------------------------------------------------------
-----------------------------------------------------------------
-----------------------------------------------------------------
-----------------------------------------------------------------

 {E...
----7---7---7----5---5---5----4---4---4--4/5-5v------------------
--0---0---0----0---0---0----0---0---0----------------------------
-----------------------------------------------------------------
-----------------------------------------------------------------
-----------------------------------------------------------------
-----------------------------------------------------------------

 {E...
--5/7-7v------9v------10---7-------12-12------12-----12----------
---------------------------------0---------0------0--------------
-----------------------------------------------------------------
-----------------------------------------------------------------
-----------------------------------------------------------------
-----------------------------------------------------------------

 {E...
----14-14----14p12----12-12-12----12-----------------------------
--0--------0--------0-----------0--------------------------------
-----------------------------------------------------------------
-----------------------------------------------------------------
-----------------------------------------------------------------
-----------------------------------------------------------------

 {E...
------7------4------2------0-0-0---------------------------------
--0-0---0--0---0--0---0--0---------------------------------------
-----------------------------------------------------------------
-----------------------------------------------------------------
-----------------------------------------------------------------
-----------------------------------------------------------------

 {E...
-------7------5------4------2------4---4-------------------------
--0--0---0--0---0--0---0--0---0--0---0---------------------------
-----------------------------------------------------------------
-----------------------------------------------------------------
-----------------------------------------------------------------
-----------------------------------------------------------------

 {E...
-------7------5------4------2------4------2----
--0--0---0--0---0--0---0--0---0--0---0--0---0--
-----------------------------------------------
-----------------------------------------------
-----------------------------------------------
-----------------------------------------------

 {E...
----0-0----2------0-0----2------0-0----2------4------2----
--0------0---0--0------0---0--0------0---0--0---0--0---0--
----------------------------------------------------------
----------------------------------------------------------
----------------------------------------------------------
----------------------------------------------------------

 {E...
----0-0----2------4------5------4------5------7-7v--------\------
--0------0---0--0---0--0---0--0---0--0---0--0--------------------
-----------------------------------------------------------------
-----------------------------------------------------------------
-----------------------------------------------------------------
-----------------------------------------------------------------

 {Em...
-----------------------------------------------------------------
-----------------------------------------------------------------
--5v-------/3--3------3/5-5v---4-4v------------------------------
-----------------------------------------------------------------
-----------------------------------------------------------------
-----------------------------------------------------------------


-----------------------------------------------------------------
-----------------------------------------------------------------
------------------( scratch )------------------------------------
-----------------------------------------------------------------
-----------------------------------------------------------------
-----------------------------------------------------------------


 {Em...
----------------------------------------------------------
----5-5v----5/7-------------------------------------------
--4-------------5v-------x--------------------------------
----------------------------------------------------------
----------------------------------------------------------
----------------------------------------------------------



*** please note ***

h - hammer on
p - pull off
b - bend string up
r - release bend
/ - slide up
\ - slide down
v - vibrato
^ - harmonics



---------------------------------------------------------------------



[untitled #6 (guitar chord solo): scene 10]

        {G}{G}{G}{G}   fade in
        {G}{G}{G}{G}
        {G}{G}{G}{G}
        {G}{G}{G}{G}
        {E}{E}{E}{E}
        {G}{G}{G}{G}
        {E}{E}{E}{E}   fade out



---------------------------------------------------------------------



[untitled #7 (guitar solo and S.E. - synth): scene 14]

        {A#m...   guitar improvisation



---------------------------------------------------------------------



[untitled #8 (band): scene 19]

        {x}                   drums
        {C}{C}{C}{C}          ( ...)
        {C}{C}{C}{C}          ( ...)
        {G}{G}{G}{G.A/A#.B}   ( ...)
        {C}{C}{C}{C}          ( ...)
break   {C.                   ( ...)



        [dialogue in German]



              .x}{G.A/A#.B}
        {C}{C}{C}{C}          ( ...)
        {C}{C}{C}{C}          ( ...)
        {G}{G}{G}{G.A/A#.B}   ( ...)
        {C}{C}{C}{C}          ( ...)
        {C}{G.A/A#.B}{C.      ( ...)



---------------------------------------------------------------------



[untitled #9 (guitar chord drone): scene 21]

        {B...   drone

        * distortion with tremolo unit or
        "morse-code-style" play (using pickup selector)



---------------------------------------------------------------------



[untitled #10 (synth noises): scene 23]

        * synthesizer noises



---------------------------------------------------------------------



[untitled #11 (guitar solo): scene 24]

        {x...    scratch

        {Em...   guitar solo key in Em

        {E...    guitar solo key in E

        {Em..    guitar solo key in Em

        {E...    guitar solo key in E




     {Em...
 1e --------------------------------------------------------------
 2B ----5-5v----5/7-----------------------------------------------
 3G --4-------------5v-------x----0-3-3v----3/5-5v----4-4v-----x--
 4D --------------------------------------------------------------
 5A --------------------------------------------------------------
 6E --------------------------------------------------------------

 {Em...
-----------------------------------------------------------------
---------------------3-------------------------------------------
--0-3-3v-----2-2---3---2/5v--------x-----------------------------
-----------------------------------------------------------------
-----------------------------------------------------------------
-----------------------------------------------------------------

 {Em...
---------------------------------------------------0-------------
----5-5-----5-5-------3-3v----------5-----5------0---------------
--4-------4-----4---4-----------5/6---4/5---5\4------------------
-----------------------------------------------------2-----------
-----------------------------------------------------------------
-----------------------------------------------------------------

 {E...
----7---7---7----5---5---5----4---4---4--4/5-5v------------------
--0---0---0----0---0---0----0---0---0----------------------------
-----------------------------------------------------------------
-----------------------------------------------------------------
-----------------------------------------------------------------
-----------------------------------------------------------------

 {E...
----7---7---7----5---5---5----4---4---4--4/5-5v------------------
--0---0---0----0---0---0----0---0---0----------------------------
-----------------------------------------------------------------
-----------------------------------------------------------------
-----------------------------------------------------------------
-----------------------------------------------------------------

 {E...
--5/7-7v------9v------10---7-------12-12------12-----12----------
---------------------------------0---------0------0--------------
-----------------------------------------------------------------
-----------------------------------------------------------------
-----------------------------------------------------------------
-----------------------------------------------------------------

 {E...
----14-14----14p12----12-12-12----12-----------------------------
--0--------0--------0-----------0--------------------------------
-----------------------------------------------------------------
-----------------------------------------------------------------
-----------------------------------------------------------------
-----------------------------------------------------------------

 {E...
------7------4------2------0-0-0---------------------------------
--0-0---0--0---0--0---0--0---------------------------------------
-----------------------------------------------------------------
-----------------------------------------------------------------
-----------------------------------------------------------------
-----------------------------------------------------------------

 {E...
-------7------5------4------2------4---4-------------------------
--0--0---0--0---0--0---0--0---0--0---0---------------------------
-----------------------------------------------------------------
-----------------------------------------------------------------
-----------------------------------------------------------------
-----------------------------------------------------------------

 {E...
-------7------5------4------2------4------2----
--0--0---0--0---0--0---0--0---0--0---0--0---0--
-----------------------------------------------
-----------------------------------------------
-----------------------------------------------
-----------------------------------------------

 {E...
----0-0----2------0-0----2------0-0----2------4------2----
--0------0---0--0------0---0--0------0---0--0---0--0---0--
----------------------------------------------------------
----------------------------------------------------------
----------------------------------------------------------
----------------------------------------------------------

 {E...
----0-0----2------4------5------4------5------7-7v--------\------
--0------0---0--0---0--0---0--0---0--0---0--0--------------------
-----------------------------------------------------------------
-----------------------------------------------------------------
-----------------------------------------------------------------
-----------------------------------------------------------------

 {Em...
-----------------------------------------------------------------
-----------------------------------------------------------------
--5v-------/3--3------3/5-5v---4-4v------------------------------
-----------------------------------------------------------------
-----------------------------------------------------------------
-----------------------------------------------------------------

 {Em...
-----------------------------------------------------------------
-----------------------------------------------------------------
--9---9v-----9/10--10v-------10--9v-----------\------------------
-----------------------------------------------------------------
-----------------------------------------------------------------
-----------------------------------------------------------------

 {Em...
--9------------10--------------12-12------12h15-x----------------
--------------------------------------------------12-x-12----x---
------11v-----------12v------------------------------------------
-----------------------------------------------------------------
-----------------------------------------------------------------
-----------------------------------------------------------------

 {Em...
--15-------------------------------------------------------------
-------12---12/13-13------13/15------13------12-12-----------x---
-----------------------------------------------------------------
-----------------------------------------------------------------
-----------------------------------------------------------------
-----------------------------------------------------------------

 {E...
-----------4--5--4-------------------4-----------
--0--5--5-----------5-------0--0--0-----5--------
-------------------------------------------------
-------------------------------------------------
-------------------------------------------------
-------------------------------------------------

 {E...
-----4--4--5--5-/7--7------7-/9----7----7-7--\---
--5----------------------------------------------
-------------------------------------------------
-------------------------------------------------
-------------------------------------------------
-------------------------------------------------

 {E...
-------------------------------------------------
----9-9----8----7----8---------------------------
----9-9----8----7----8---------------------------
--9----------------------------------------------
-------------------------------------------------
-------------------------------------------------



*** please note ***

h - hammer on
p - pull off
b - bend string up
r - release bend
/ - slide up
\ - slide down
v - vibrato
^ - harmonics



---------------------------------------------------------------------



[untitled #12 (guitar solo): scene 26]

        {E...    guitar solo key in E




     {E...
 1e -----------------------------------------
 2B -----------------------------------------
 3G -----------------------------------------
 4D -----------------------------------------
 5A -----------------------------0-2-3v------
 6E --1-3-4-5--1-3-4-5--0-3-4-5--------------

 {E...
---------------------------------------------------
---------------------------------------------------
---------------------------------------------------
---------------------------------------------------
--0-2-3-4--3-2-0-1--0------------------------------
----------------------3-0-2--3---2---0-------------

 {E...
---------------------------------------------------
---------------------------------------------------
---------------------------------------------------
----2------2----2----2/4---4/6-6-----6-----6-------
---------------------------------------------------
--0-----0-----0----0-----0--------0-----0----------

 {E...
-----------------------------------------------------------------
-----------------------------------------------------------------
-----------------------------------------------------------------
-----6/7---7---6---4----4/6--6----4\2--2---2---2----2---2---2----
-----------------------------------------------------------------
--0-----------------------------------------------0---0---0------

 {E...
------------------------------------------
------------------------------------------
------------------------------------------
--4/6--6--6----7----7/9-------------------
------------------------------------------
---------------------------0-----0--------

 {E...
---------------------------------------------
---------------------------------------------
---------------------------------------------
--9--9--9/10-x--9---9\7--7----7--------------
---------------------------------------------
----------------------------------0-----0----

 {E...
-----------------------------------------------------
-----------------------------------------------------
-----------------------------------------------------
--7--7--7/9---9-----7--7\6---6-----------6--6--------
-----------------------------------------------------
---------------------------------0---0---------0-----

 {E...
--------------------------------------------------
--------------------------------------------------
--------------------------------------------------
--6--6\----2----2--2------------------------------
--------------------------------------------------
----------------------0--0-----0---0-0------------

 {E...
--------------------------------------------------
--------------------------------------------------
--------------------------------------------------
--------------------------------------------------
--------------------------------------------------
--0-3-4-5--0--------------------------------------

 {E...
------------------------------------------------
------------------------------------------------
------------------------------------------------
------------------------------------------------
------------------------------4-3-2--0----------
--0-2-3-4--0----------------0----------4-3-2-0--

 {E...
-------------------------------------------------------------
-------------------------------------------------------------
-------------------------------------------------------------
--------------------------------------------------2----------
-------------------------------------------------------------
--0--0-3-5---0--0-3--4--5---5/7v---5v---4v----0------0-------

 {E...
--------------------------------------
--------------------------------------
--------------------------------------
--------------------------------------
--------------------------------------
--0-2-3-4--0-0-0-0--0-2-3-4--0-0-0-0--

 {E...
--------------------------------------
--------------------------------------
--------------------------------------
--------------------------------------
--5--------5--------4--------4--------
----0-0-0----0-0-0----0-0-0----0-0-0--

 {E...
-----------------------------------------------------------------
-------------------------------------------------------0---------
-----------------------------------------------------------------
-----------------------------------------------------------------
--5---4----5---7--------4----4---4v-------0h2-2v---5/7-----7-----
----0---0----0---0--0-0---0----0--------0------------------0-----

 {E...
----------------------------------------------------------------
----------------------------------------------------------------
----------------------------------------------------------------
----------------------------------------------------------------
----------------------------4--3--2--0---0-----0----------------
--0--2--3--4---0--3--4--5-------------------4-----4---0--4------



*** please note ***

h - hammer on
p - pull off
b - bend string up
r - release bend
/ - slide up
\ - slide down
v - vibrato
^ - harmonics




*********************************************************************
transcribed by Shiroh KOUCHI (wildside@mx21.tiki.ne.jp)
http://ww21.tiki.ne.jp/~wildside/
*********************************************************************