======================
"Turn To Me"
======================
album _New Sensations_
(Lou Reed, 1984)

written by Lou Reed
======================


        If you gave up major vices
        you're between a hard place and a wall
        And your car breaks down in traffic
        on the street
        Remember, I'm the one who loves you
        you can always give me a call
        Turn to me, turn to me
        baby, turn to me

        If your father is free basing
        and your mother turning tricks
        That's still no reason
        you should have a rip
        Remember, I'm the one who loves you
        you can always give me a call
        Turn to me, turn to me
        turn to me

        When your teeth are ground down to the bone
        and there's nothing between your legs
        And some friend died of something
        that you can't pronounce, ah
        Remember, I'm the one who loves you
        hey baby, you can always give me a call
        Turn to me, turn to me
        turn to me

        You can't pay your rent, your boss is an idiot
        and your apartment has no heat
        And your wife says, "Maybe
        it's time to have a child"
        Remember, I'm the one who loves you
        and you can always give me a call
        Turn to me, turn to me
        turn to me

        When it's all too much you turn the TV set on
        and light a cigarette
        And then a public service announcement
        comes creeping on
        And you see a lung corroding
        or a fatal heart attack
        Turn to me, turn to me
        baby, turn to me, I'm just a phone call away

        Turn to me, turn to me
        hey, turn to me, one .... a dollar
        Turn to me, baby
        turn to me
        (Turn to me, turn to me
        turn to me)
        (Turn to me, turn to me
        turn to me)




intro   {D}{D}{G}{D}
        {D}{D}{G}{G/A}
        {D}{D}{G}{D}
        {G}{A}{D}{D}            (If you -)

        {D}{D}{G}{D}            (- gave up major vices, you're ...)
        {D}{D}{G}{G/A}          (- car breaks down in traffic ...)
        {D}{D}{G}{D}            (- I'm the one who loves you ...)
        {G}{A}{D}{D}            (- me, turn to me, baby, turn to me)

        ...

        ...

guitar  {D}{D}{G}{D}
        {D}{D}{G}{G/A}
        {D}{D}{G}{D}
        {G}{A}{D}{D}            (You -)

clap.   ...

        {D}{D}{G}{D}            (- all too much you turn the TV ...)
        {D}{D}{G}{G/A}          (- public service announcement ...)
        {D}{D}{G}{D}            (- see a lung corroding or a ...)
        {G}{A}{D}{D}            (- me, turn to me, baby, turn ...)

        {G}{A}{D}{D}            (- me, turn to me, hey, turn to ...)
        {G}{A}{D}{D}            (- Turn to me, baby, turn to me)
        {G}{A}{D}{D}            background vocals
        {G}{A}{D}{D}            background vocals
        ... fade out




* riff

      {D}        {D}            {G}           {D}
 1e ----------------------------------------------------
 2B ---3---x--3-x-3---x-3---3-x--0---x----0-x--3---x----
 3G ---2---x--2-x-2---x-2-4-2-x--0---x----0-x--2---x----
 4D ---0---x--0-x-0---x-0-0-0-x--0---x----0-x--0---x----
 5A ------------------------------------2---------------
 6E ----------------------------------------------------

  {D}         {D}                 {G}        {G  / A     }
------------------------------------------------------------
---3--x-3---x-3--3----3--3----3--x--0---x--0-x-0--x-3---x---
---2--x-2---x-2--2--4-2--2----2--x--0---x--0-x-0--x-2---x---
---0--x-0---x-0--0--0-0--0-4v-0--x--0---x--0-x-0--x-2---x---
------------------------------------------------------------
------------------------------------------------------------

  {D}        {D}            {G}            {D}
-----------------------------------------------------------
---3---x--3-x-3---x-3---3----0---x---0--0--x-3---x---3-----
---2---x--2-x-2---x-2-4-2----0---x---0--0--x-2---x-4-2-----
---0---x--0-x-0---x-0-0-0----0---x---0--0--x-0---x-0-0-----
---------------------------2-------------------------------
---------------------------3-------------------------------

   {G}        {A}            {D}      {D}
------------------------------------------------
---0---x---0-x-3---x-2----2---3---x---3-x-3-----
---0---x---0-x-2---x-2----2---2---x---2-x-2-----
---0---x---0-x-2---x-2----2---0---x---0-x-0-----
---------------------0-3v-0---------------------
------------------------------------------------



*** please note ***

h - hammer on
p - pull off
b - bend string up
r - release bend
/ - slide up
\ - slide down
v - vibrato
^ - harmonics




*********************************************************************
---------------------------------------------------------------------
thanks: Kirill Rodionov (thaumaturge@chat.ru)
---------------------------------------------------------------------

"Turn To Me"

...
baby, turn to me, I'm just a phone call away

---------------------------------------------------------------------
*********************************************************************
transcribed by Shiroh KOUCHI (wildside@mx21.tiki.ne.jp)
http://ww21.tiki.ne.jp/~wildside/
*********************************************************************