=====================================
"The Room"
(instrumental)
=====================================
7" single "Romeo Had Juliette" B-side
(Lou Reed, 1989)

12" single "Dirty Blvd."
(Lou Reed, 1989)

12" single "Romeo Had Juliette"
(Lou Reed, 1989)

CDEP "Dirty Blvd."
(Lou Reed, 1989)

written by Lou Reed/Mike Rathke
=====================================



        {Em}{Em}{Em}{Em}
        {Em}{Em}{Em}{Em}
        {Em}{Em/Em.
        {Em}{Em}{Em}{Em}
        {Em}{Em}{Em}{Em}
        {Em}{Em}{Em}{Em}
        {Em}{Em}{Em}{Em}
        {Em}{Em}{Em}{Em}
        ... repeat Em




* non-distortion with 1/8 echo

      ____________    ____________    ____________    ____________
     /   /   /   /   /   /   /   /   /   /   /   /   /   /   /   /
    {Em}                            {Em}
1e --0---0---0---0-------------------0---0--------------------------
2B ------------------3---3---0---0-----------3---0------------------
3G ------------------------------------------------------2v--0------
4D --------------------------------------------------------------0--
5A -----------------------------------------------------------------
6E -----------------------------------------------------------------

   ____________    ____________    ____________    ____________
  /   /   /   /   /   /   /   /   /   /   /   /   /   /   /   /
 {Em}                            {Em}
-----------------------------------------------------------------
-----------------------------------------------------------------
-----------------------------------------------------------------
--2---0----------------------------------------------------------
----------0---2---0----------------------------------------------
----------------------3v--3v--0---0---0---0---0---0---0---0---0--

   ____________    ____________    ____________    ____________
  /   /   /   /   /   /   /   /   /   /   /   /   /   /   /   /
 {Em}                            {Em}
--0---0-------------------0---0-------3---3---2---2---0---0---0--
----------3---3---0---0-----------3------------------------------
-----------------------------------------------------------------
-----------------------------------------------------------------
-----------------------------------------------------------------
--0---0---0---0---0---0---0---0---0---0---0---0---0---0---0---0--

   ____________    ____________    ____________    ____________
  /   /   /   /   /   /   /   /   /   /   /   /   /   /   /   /
 {Em}                            {Em}
-----------------------------------------------------------------
----------0---0--------------------------------------------------
--2p0-0-----------0---2b4-4---4---4---4r2-0----------------------
----------------------------------------------2---0--------------
-----------------------------------------------------------------
--0---0---0---0---0---0---0---0---0---0---0---0---0---0---0---0--

   ____________    ____________    ____________    ____
  /   /   /   /   /   /   /   /   /   /   /   /   /   /
 {Em}                            {Em/            Em.
---------------------------------------------------------
---------------------------------------------------------
---------------------------------------------------------
---------------------------------------------------------
---------------------------------------------------------
--0---0---0---0---0---0---0---0---0---0---0---0---0---0--

   ____________    ____________    ____________    ____________
  /   /   /   /   /   /   /   /   /   /   /   /   /   /   /   /
 {Em}                            {Em}
--0---0-----------------------3---3---2---2---0------------------
----------3---3---0---0---0--------------------------------------
-----------------------------------------------------------------
-----------------------------------------------------------------
-----------------------------------------------------------------
--0---0---0---0---0---0---0---0---0---0---0---0---0---0---0---0--

   ____________    ____________    ____________    ____________
  /   /   /   /   /   /   /   /   /   /   /   /   /   /   /   /
 {Em}                            {Em}
--0---0----------------------------------------------------------
----------3---3---0---0------------------------------------------
--------------------------0---2---2v--2v--2v--2v--0--------------
------------------------------------------------------2---0------
--------------------------------------------------------------2--
--0---0---0---0---0---0---0---0---0---0---0---0---0---0---0---0--

   ____________    ____________    ____________    ____________
  /   /   /   /   /   /   /   /   /   /   /   /   /   /   /   /
 {Em}                            {Em}
--0---0---------------------------0---0-------3---3---2---0------
----------3---3---0---0-------------------3----------------------
-----------------------------------------------------------------
-----------------------------------------------------------------
-----------------------------------------------------------------
--0---0---0---0---0---0---0---0---0---0---0---0---0---0---0---0--

   ____________    ____________    ____________    ____________
  /   /   /   /   /   /   /   /   /   /   /   /   /   /   /   /
 {Em}                            {Em}
--0---0----------------------------------------------------------
----------3---3---0---0------------------------------------------
--------------------------0---2---2v--2---2---2v--0--------------
------------------------------------------------------2---0------
-----------------------------------------------------------------
--0---0---0---0---0---0---0---0---0---0---0---0---0---0---0---0--

   ____________    ____________    ____________    ____________
  /   /   /   /   /   /   /   /   /   /   /   /   /   /   /   /
 {Em}                            {Em}
-----------------------------------------------------------------
--0---0---0---2---2---2---2---2---0---0---2---2---2---2---0---0--
--0---0---0---2---2---2---2---2---0---0---2---2---2---2---0---0--
--0---0---0---2---2---2---2---2---0---0---2---2---2---2---0---0--
-----------------------------------------------------------------
--0---0---0---0---0---0---0---0---0---0---0---0---0---0---0---0--

   ____________    ____________    ____________    ____________
  /   /   /   /   /   /   /   /   /   /   /   /   /   /   /   /
 {Em}                            {Em}
-----------------------------------------------------------------
--0---0---0---0---0---0---0---0---2---2---2---2---0---0---0---0--
--0---0---0---0---0---0---0---0---2---2---2---2---0---0---0---0--
--0---0---0---0---0---0---0---0---2---2---2---2---0---0---0---0--
-----------------------------------------------------------------
--0---0---0---0---0---0---0---0---0---0---0---0---0---0---0---0--

....




* non-distortion with 1/8 echo: scale

       0   1   2   3
1e -o-||---|-o-|-o-|-
2B -o-||---|-o-|-o-|-
3G -o-||---|-o-|---|-
4D -o-||---|-o-|---|-
5A -o-||---|-o-|---|-
6E -o-||---|---|-o-|-




* distortion guitar: scale

       0   1   2   3   4   5   6   7   8   9  10  11  12
1e ---||---|---|---|---|---|---|---|---|---|---|---|-o-|-
2B ---||---|---|---|---|---|---|-o-|-o-|---|-o-|---|-o-|-
3G -o-||---|-o-|---|-o-|---|-o-|-o-|---|-o-|---|-o-|-o-|-   ...
4D -o-||---|-o-|---|-o-|-o-|---|-o-|---|-o-|---|-o-|-o-|-
5A ---||---|---|---|---|---|---|-o-|---|-o-|---|---|---|-
6E ---||---|---|---|---|---|---|---|---|---|---|---|---|-

           12  13  14  15  16  17  18
      --|-o-|-o-|---|---|---|---|---|---|--
      --|-o-|-o-|-o-|-o-|---|-o-|-o-|---|--
...   --|-o-|---|---|---|---|---|---|---|--
      --|-o-|---|-o-|---|---|---|---|---|--
      --|---|---|---|---|---|---|---|---|--
      --|---|---|---|---|---|---|---|---|--



*** please note ***

h - hammer on
p - pull off
b - bend string up
r - release bend
/ - slide up
\ - slide down
v - vibrato
^ - harmonics




*********************************************************************
transcribed by Shiroh KOUCHI (wildside@mx21.tiki.ne.jp)
http://ww21.tiki.ne.jp/~wildside/
*********************************************************************