======================================================
"Tarbelly And Featherfoot"
======================================================
album _Sweet Relief - A Benefit For Victoria Williams_
(Various Artists, 1993)

written by Victoria Williams
======================================================


        Tarbelly stood in the door
        as browsing out
        Body like a statue
        hands high on his hips
        And his mouth, while his mouth
        drooling like a leaky spout
        Looking for something from another day
        a day when she can ask him and he would want to play

        Hey, hey
        Born to play
        hey-hey-hey
        Thumb up, down the stairs, she came
        she heard him coming, she stood there just the same, hey-hey

        Featherfoot walked right past .....
        into the kitchen
        Make .... sandwiches, drunk a pot of coffee
        and a bottle of ...... little cracker
        Cut his toes and his hair and his clothes
        made three phone calls .......

        All the while, Tarbelly stood in the door
        his eyes are browsing out
        Hands high on his hips, body like a statue
        mouth drooling like a leaky spout
        Eyes browsing out, body like a statue
        drooling like a leaky spout

        Now Featherfoot got to thinking he'd like to go out
        and Tarbelly stood in the way
        And he thought, and he thought
        of the game he used to play
        And he used ..... swing the statue
        And took to Tarbelly by the wrists
        and he carried up to New York

        And round and round and round he swang
        and round and round and round he swang
        And round and round he swang, ....... of fly

        Fly-fly away up high
        all of the ...... through
        And when she stopped, no one could say
        you can chase a shadow across the day
        You can chase a shadow across the day
        you can chase a shadow across the day
        you can ..... a love without giving
        get away, giving, giving away



intro   {E}{E}{E}{E}
        {E}{E}{E}{E}

        {E}{E}{A}{A}   (Tarbelly stood in the door ...)
        {E}{E}{A}{A}   (Body like a statue ...)
        {E}{E}{A}{A}   (And his mouth, while his mouth ...)
        {E}{D}{B}{B}   (Looking for something from another day ...)

        {E}{E}{A}{A}   (- play, Hey, hey, Born to -)
        {E}{E}{A}{A}   (- play, hey-hey-hey)
        {E}{E}{D}{A}   (Thumb up, down the stairs, she came ...)

        {E}{E}{A}{A}   (- hey)

        {E}{E}{D}{D}   (Featherfoot walked right past ....)
        {E}{E}{D}{D}   (Make ... sandwiches, drunk a pot of ...)
        {E}{E}{D}{D}   (Cut his toes and his hair and his ...)

        {E}{E}{A}{A}   (- while, Tarbelly stood in the door ...)
        {E}{E}{A}{A}   (Hands high on his hips, body like a ...)
        {E}{E}{A}{A}   (Eyes browsing out, body like a statue ...)

        {E}{E}{D}{D}   (Now Featherfoot got to thinking ...)
        {E}{E}{D}{D}   (- way, And he thought, and he thought ...)
        {E}{E}{D}{D}   (- play, And he used ..... swing the statue)
        {E}{E}{D}{D}   (And took to Tarbelly by the wrists ...)

        {B}{B}{B}{B}   (- round and round and round he swang ...)
        {B}{B}         (- round and round he swang, .... of -)

        {E}{E}{A}{A}   (- fly, fly-fly away up high ...)
        {E}{E}{A}{A}   (- through, And when she stopped ...)
        {E}{E}{A}{A}   (- day, You can chase a shadow across ...)
        {E}{E}{A}{A}   (- day, you can ..... a love without ...)

coda    {E}{E}{E}{E}   (- away)
        {E}{E}{E}{E}
        {E...




* intro and coda

     {E}                       {E}
 1e ------------------------------------------------------
 2B ------------------------------------------------------
 3G --x--x--9--x---8--9--x-11---x--9--x--8--/9--9--9--x---
 4D --x--x--x--x---x--x--x--x---x--x--x--x---x--x--x--x---
 5A --x--x--7--x---6--7--x--9---x--7--x--6--/7--7--7--x---
 6E --0--0--0--0---0--0--0--0---0--0--0--0------0--0--0---

 {E}                       {E}
------------------------------------------------------
------------------------------------------------------
--x--x-13--x--12-13--x-14---x-13--x-12-/13-13-13--x---
--x--x--x--x---x--x--x--x---x--x--x--x---x--x--x--x---
--x--x-11--x--10-11--x-12---x-11--x-10-/11-11-11--x---
--0--0--0--0---0--0--0--0---0--0--0--0------0--0--0---

 {E}                       {E}
------------------------------------------------------
------------------------------------------------------
--x--x-16--x--15-16--x-18---x-16--x-15-/16-16-16--x---
--x--x--x--x---x--x--x--x---x--x--x--x---x--x--x--x---
--x--x-14--x--13-14--x-16---x-14--x-13-/14-14-14--x---
--0--0--0--0---0--0--0--0---0--0--0--0------0--0--0---

 {E}                       {E}
------------------------------------------------------
------------------------------------------------------
-19-19-19--x---x--x-19-19--19--x--x--x--19-19-19--x---
--x--x--x--x---x--x--x--x---x--x--x--x---x--x--x--x---
-17-17-17--x---x--x-17-17--17--x--x--x--17-17-17--x---
--0--0--0--x---x--x--0--0---0--x--x--x---0--0--0--x---




* riff

                 Tarbelly stood in the door
     {E}                       {E}
 1e ------------------------------------------------------
 2B ------------------------------------------------------
 3G ------------------------------------------------------
 4D --x--x--x--x---x--x--x--x---x--x--x--x---x--x--x--x---
 5A --x--x--7--x---6--7--x--9---x--7--x--6--/7--7--7--x---
 6E --0--0--0--0---0--0--0--0---0--0--0--0------0--0--0---

                 as browsing out
 {A}                       {A}
------------------------------------------------------
------------------------------------------------------
--x--x--x--x---x--x--x--x---x--x--x--x---x--x--x--x---   ...
--x--x--7--x---6--7--x--9---x--7--x--6--/7--7--7--x---
--0--0--0--0---0--0--0--0---0--0--0--0------0--0--0---
--x--x--x--x---x--x--x--x---x--x--x--x---x--x--x--x---



*** please note ***

h - hammer on
p - pull off
b - bend string up
r - release bend
/ - slide up
\ - slide down
v - vibrato
^ - harmonics




*********************************************************************
---------------------------------------------------------------------
thanks: Jose Alberto (brooklyn@usuarios.retecal.es)
---------------------------------------------------------------------


not complete but...take a look!!



"Tarbelly And Featherfoot"


Tarbelly stood in the door as...
Body like a statue, hands...on his hips and
his mouth, while his mouth drooling like a ...

Looking for soemthing from another day,
a day when she can ask him and he would want to play
hey, hey, hey, born to play, hey, hey, hey

Thumb up, thumb up, down the stairs
she came she heard him coming 
she stood there just the same, hey, hey

Feather Tarbelly walked right past...into the kitchen
Make...sandwiches, drunk a...of coffe and a bottle of...vodka
...his toes and his hair and his clothes, made three phone calls...
All the while
Tarbelly stood in the door
His eyes are...out
Hands on his hips, body like a statue
mouth drooling like...
...
and Tarbelly stood in the way
and he thought, and he thought
the game he used to play
and...
and took to Tarbelly by the wrists
and took to Tarbelly to New York
and round and round and round he swang
...of fly
fly, fly, away...
and when she stopped
no one could say...
a shadow acroos the day...
...giving away.


---------------------------------------------------------------------
*********************************************************************
chords/tabs transcribed by Shiroh KOUCHI (wildside@mx21.tiki.ne.jp)
http://ww21.tiki.ne.jp/~wildside/
*********************************************************************