===================
"Spit It Out"
===================
album _Mistrial_
(Lou Reed, 1986)

written by Lou Reed
===================


        If there's rage inside you so you cannot think
        spit it out
        If you get so angry that you cannot speak
        spit it out
        Talk to him or her or it
        and tell them where they can put it
        Spit it out, spit it out
        You got to talk to him or her or it
        and take aim with your mouth and spit
        Spit it out, spit it out

        If you get worked over at your job
        spit it out
        If a taxi almost runs you down
        spit it out
        You got to take aim with your mouth and speak
        and give it to them right between the teeth
        Spit it out, spit it out
        Talk to him or her or it
        and take aim with your mouth and spit
        Spit it out, spit it out

        Spit it out
        Hey, hey, hey

        If you're patient and you have the time
        spit it out
        Wait till they're on the decline
        spit it out
        The Chinese say you meet the hard with the soft
        the Yin with the Yang, the down with the up, oh
        Spit it out, spit it out
        You got to grab that dumb he, she or it
        and give it to them right between the teeth
        Spit it out, spit it out

        Spit it out, babe, spit it out
        Hey



intro   {E}{E}{E}{E}
        {E}{E}{E}{E}    (If there's -)

        {E}{E}{E}{E}    (- rage inside you so you cannot think ...)
        {E}{E}{E}{E}    (- get so angry that you cannot speak ...)
        {A}{A}{A}{A}    (Talk to him or her or it ...)
        {E}{E}{E}{E}    (Spit it out, spit it out)
        {B}{B}{A}{A}    (You got to talk to him or her or it ...)
        {E}{E}{E}{E}    (Spit it out, spit it out. If you -)

        ...

guitar  {E}{E}{E}{E}    (Spit it out)
        {E}{E}{E}{E}
        {A}{A}{A}{A}    (Hey, hey, hey)
        {E}{E}{E}{E}
        {B}{B}{A}{A}
        {E}{E}{E}{E}    (If you're -)

        {E}{E}{E}{E}    (- patient and you have the time ...)
        {E}{E}{E}{E}    (Wait till they're on the decline ...)
        {A}{A}{A}{A}    (- Chinese say you meet the hard with ...)
        {E}{E}{E}{E}    (Spit it out, spit it out)
        {B}{B}{A}{A}    (You got to grab that dumb he she or it ...)
        {E}{E}{E}{E}    (Spit it out, spit it out. Spit it out, -)

        {E}{E}{E}{E}    (- babe, spit it out)
        {E}{E}{E}{E}    (Hey)
        {E}{E}{E}{E}
        {E}{E}{E}{E}
        {E}{E}{E}{E}
        {E}{E}{E}{E}
        {E}{E}{E}{E}
        ... fade out




* riff (chord E part)

     {E}                 {E}
 1e -------------------------------------------
 2B -------------------------------------------
 3G --x-11-x-x--9-x-x-x---x-7-x-x--7-x-x-7--/--
 4D --x-11-x-x--9-x-x-x---x-7-x-x--7-x-x-7--/--
 5A --x--9-x-x--7-x-x-x---x-5-x-x--5-x-x-5--/--
 6A -------------------------------------------

 {E}                 {E}
-------------------------------------------
-------------------------------------------
--/9-9-x-----------------------------------
--/9-9-x-----------------------------------
--/7-7-x-----------------------------------
-------------------------------------------



* riff (chord A part)

     {A}                {A}
 1e ------------------------------------
 2B ------------------------------------
 3G ------------------------------------
 4D --x-9-x-x--7-x-x-6--/7-7-x-7-x-x-x--
 5A --x-9-x-x--7-x-x-6--/7-7-x-7-x-x-x--
 6E --x-7-x-x--5-x-x-4--/5-5-x-5-x-x-x--

 {A}                {A}
------------------------------------
------------------------------------
------------------------------------
--x-9-x-x--7-x-x-6--/7-7-x-7-x-x-x--
--x-9-x-x--7-x-x-6--/7-7-x-7-x-x-x--
--x-7-x-x--5-x-x-4--/5-5-x-5-x-x-x--



* riff (chord B-A part)

     {B}                {B}
 1e ------------------------------------
 2B ------------------------------------
 3G ------------------------------------
 4D --x-9-x-x--9-x-x-7--/7-9-x-9-x-x-x--
 5A --x-9-x-x--9-x-x-7--/7-9-x-9-x-x-x--
 6E --x-7-x-x--7-x-x-5--/7-7-x-7-x-x-x--

 {A}                {A}
------------------------------------
------------------------------------
------------------------------------
--x-7-x-x--7-x-x-5--/7-7-x-7-x-x-x--
--x-7-x-x--7-x-x-5--/7-7-x-7-x-x-x--
--x-5-x-x--5-x-x-3--/5-5-x-5-x-x-x--




* guitar solo: scale (chord E part)

        7   8   9  10  11  12
1e -|---|---|---|---|---|---|-
2B -|---|-o-|---|-o-|---|---|-
3G -|-o-|---|-o-|---|---|---|-
4D -|---|---|---|---|---|---|-
5A -|---|---|---|---|---|---|-
6E -|---|---|---|---|---|---|-



* guitar solo: scale (chord A part)

        7   8   9  10  11  12
1e -|---|---|---|---|---|---|-
2B -|---|-o-|---|---|---|---|-
3G -|---|---|-o-|---|---|---|-
4D -|---|---|---|---|---|---|-
5A -|---|---|---|---|---|---|-
6E -|---|---|---|---|---|---|-



* guitar solo: scale (chord B part)

        7   8   9  10  11  12
1e -|---|---|---|---|---|---|-
2B -|---|---|---|-o-|---|---|-
3G -|---|---|---|---|-o-|---|-
4D -|---|---|---|---|---|---|-
5A -|---|---|---|---|---|---|-
6E -|---|---|---|---|---|---|-



*** please note ***

h - hammer on
p - pull off
b - bend string up
r - release bend
/ - slide up
\ - slide down
v - vibrato
^ - harmonics




*********************************************************************
---------------------------------------------------------------------
thanks: Detlef Juergens (detlef.juergens@nwn.de)
---------------------------------------------------------------------


"Spit It Out"

if there's rage inside you
so you cannot think
Spit It Out
if you get so angry
that you cannot speak
Spit It Out

talk to him or her or it
and tell them where they can put it
Spit It out
you got to talk to him or her or it
and take aim with your mouth and spit
Spit It Out
Spit It Out

if you get worked over at your job
Spit It Out
if a taxi almost runs you down
Spit It Out
you got to take aim with yout mouth
and speak
and give it to them right between
the teeth
Spit It Out
Spit It Out

talk to him or her or it
and take aim with your mouth and spit
Spit It Out
Spit It Out

if you're patient and you have the time
Spit It Out
wait till they're on the decline
Spit It Out
the Chinese say you meet the hard with the soft
the Yin with the Yang
the down with the up
Spit It Out
Spit It Out

you got to grab that dumb he she or it
and give it to them right between the teeth
Spit It Out
Spit It Out


---------------------------------------------------------------------
*********************************************************************
transcribed by Shiroh KOUCHI (wildside@mx21.tiki.ne.jp)
http://ww21.tiki.ne.jp/~wildside/
*********************************************************************