==================================================
"Run"
==================================================
CDEP "Hooky Wooky"
(Lou Reed, 1996)

written by Lou Reed

* a.k.a. "On The Run"

* outtake from _Set The Twilight Reeling_ sessions
* written for the play _Time Rocker_ (1996)
==================================================


        You don't ever compromise
        I see the pain in your eyes
        Don't you worry, the game is won
        I'll be there on the run

        I'll make you happy, the others are thick
        just call me up, I'll be your big stick
        They do it for money that's what they call fun
        I'll be there on the run

        A room with thirteen chairs
        three lions, ten polar bears
        An ice cube the size of the sun
        I'll be there on the run

        I see pain in your eyes
        and you know I sympathize
        I'll come runnin' the game is won
        I'll be there on the run

        We have never compromised
        I'll say I love you a million times
        Don't you forget it, the game is won
        I'll be there on the run

        Don't you forget it, the game is won
        I'll be there on the run



* all the strings downtuned a whole-tone

 1d ----- * downtuned a whole-tone (from e to d)
 2A ----- * downtuned a whole-tone (from B to A)
 3F ----- * downtuned a whole-tone (from G to F)
 4C ----- * downtuned a whole-tone (from D to C)
 5G ----- * downtuned a whole-tone (from A to G)
 6D ----- * downtuned a whole-tone (from E to D)



intro   {D}{A}{D}{G}             ... fade in
        {D}{A}{G}{G/A}

        {D}{Asus4/A}{D}{G}       (You don't ever compromise ...)
        {D}{Asus4/A}{G}{G}       (- worry, the game is won ...)

        {D}{Asus4/A}{D}{G}       (I'll make you happy ...)
        {D}{Asus4/A}{G}{G}       (- for money that's what ...)

        {D}{Asus4/A}{D}{G}       (A room with thirteen ...)
        {D}{Asus4/A}{G}{G}       (- size of the sun, I'll ...)

        {D}{Asus4/A}{D}{G}       (- see pain in your eyes ...)
        {D}{Asus4/A}{G}{G}       (- runnin' the game is won ...)

        {D}{Asus4/A}{D}{G}       (We have never compromised ...)
        {D}{Asus4/A}{G}{G/G.A}   (The game is won, I'll be ...)

        {D}{Asus4/A}{G}{G}       (- forget it, the game is ...)
        {D...




* intro (all the strings downtuned a whole-tone)

     {D}                 {A}
*1d --------------------------------------
*2A --3--3----------------2---2-----------
*3F --2--2--2h4-2---------2---2-----2-----
*4C --0--0--------4p2p0---2---2-2h4---2---
*5G ----------------------0---0-----------
*6D --------------------------------------

  {D}                 {G}
---------------------------------------------
---3--3----------------3--3--3---3-3---3-3---
---2--2--2h4-2---------0--0--0h2-2-0---0-0---
---0--0--------4p2p0---0--0--0---0-0h2-2-2---
---------------------------------------------
---------------------------------------------

 {D}              {A}
-------------------------------------
-----3-------------2-----------------
-----2--2h4-2------2-------2---2-----
--0--0---------4---2-------2-4-2-----
-------------------0-0-0-0-------0---
-------------------------------------

 {G}               {G   /    A}
-------------------------------------
--3------3------3------3-----5---5---
--0------0------0------0-----0---0---
--0------0------0------0-----0---0---
--x------x------x------x-----x---x---
--3-3-3--3-3-3--3-3-3--3-3---5---5---




* riff (all the strings downtuned a whole-tone)

      You don't ever compromise
     {D}                {Asus4/A}
*1d ---------------------------------------
*2A --3...---------------3-----2----0-0h2--
*3F --2...---------------2-----2----2-2-2--
*4C --0...---------------2-----2----2-2-2--
*5G ---------------------0-----2----0-0-0--
*6D ---------------------------------------

I see the pain in your eyes,     Don't you -
 {D}                {G}
---------------------3...--------------
--3...---------------0...--------------
--2...---------------0...--------------
--0...---------------0...--------------
---------------------2...--------------
---------------0-2---3...--------------

- worry, the game is won,     I'll be there -
 {D}                {Asus4/A}
---------------------------------------
--3...---------------3-----2-----------
--2...---------------2-----2-----------
--0...---------------2-----2-----------
---------------------0-----0-----------
---------------------------------------

- on the run
 {G}                {G}
---------------------------------------
--3...---------------3---5----3---5----
--0...---------------0---0----0---0----
--0...---------------0---0----0---0----
--x------------------x---x----x---x----
--3...---------------3---5----3---5----




* ending (all the strings downtuned a whole-tone)

- forget it, the game is won, I'll be there on the -
 {D}                {Asus4/A}
---------------------------------------
--3...---------------3-----2-----------
--2...---------------2-----2-----------
--0...---------------2-----2-----------
---------------------0-----0-----------
---------------------------------------

- on the run
 {G}                {G}
---------------------------------------
--3...--5...---------7---5----3---5----
--0...--0...---------0---0----0---0----
--0...--0...---------0---0----0---0----
--x-----x------------x---x----x---x----
--3...--5...---------7---5----3---5----


 {D...
---------------------------------------
--3...---------------------------------
--2...---------------------------------
--0...---------------------------------
---------------------------------------
---------------------------------------



*** please note ***

h - hammer on
p - pull off
b - bend string up
r - release bend
/ - slide up
\ - slide down
v - vibrato
^ - harmonics




---------------------------------------------------------------------



* chords for standard-tuning


intro   {C}{G}{C}{F}             ... fade in
        {C}{G}{F}{F/G}

        {C}{Gsus4/G}{C}{F}       (You don't ever compromise ...)
        {C}{Gsus4/G}{F}{F}       (- worry, the game is won ...)

        {C}{Gsus4/G}{C}{F}       (I'll make you happy ...)
        {C}{Gsus4/G}{F}{F}       (- for money that's what ...)

        {C}{Gsus4/G}{C}{F}       (A room with thirteen ...)
        {C}{Gsus4/G}{F}{F}       (- size of the sun, I'll ...)

        {C}{Gsus4/G}{C}{F}       (- see pain in your eyes ...)
        {C}{Gsus4/G}{F}{F}       (- runnin' the game is won ...)

        {C}{Gsus4/G}{C}{F}       (We have never compromised ...)
        {C}{Gsus4/G}{F}{F/F.G}   (The game is won, I'll be ...)

        {C}{Gsus4/G}{F}{F}       (- forget it, the game is ...)
        {C...







==============================================
"On The Run"
==============================================
from the play _Time Rocker_
(Robert Wilson/Darryl Pinckney/Lou Reed, 1996)

performed by actors, German musicians

Jun 11, 1996
Thalia Theater, Hamburg, Germany
(pre-premiere)
==============================================


        You don't ever compromise
        I see the pain in your eyes
        Don't you worry, the game is won
        I'll be there on the run

        I'll make you happy, the others are thick
        just call me up, I'll be your big stick
        They do it for money that's what they call fun
        I'll be there on the run

        A room with thirteen chairs
        (three lions, ten polar bears)
        An ice cube the size of the sun
        I'll be there on the run

        (I see pain in your eyes)
        (and you know I sympathize)
        (I'll come runnin' the game is won)
        (I'll be there on the run)

        We have never compromised
        I'll say I love you a million times
        Don't you forget it, the game is won
        I'll be there on the run

        Don't you forget it, the game is won
        I'll be there on the run

        We have never compromised
        I'll say I love you a million times
        yes, a million times
        (Don't you forget it), oh, the game is won
        I'll be there on the run
        I'll be there on the run baby, oh-oh

        (Don't you forget it), the game is won
        I'll be there on the run
        I'll be there on the run



intro   {C}{Gsus4/G}{C}{F}       dialogue in German
        {C}{Gsus4/G}{F}{F/F.G}   ...

        {C}{Gsus4/G}{C}{F}       (You don't ever compromise ...)
        {C}{Gsus4/G}{F}{F/F.G}   (- worry, the game is won ...)

        {C}{Gsus4/G}{C}{F}       (I'll make you happy ...)
        {C}{Gsus4/G}{F}{F/F.G}   (- money that's what they call ...)

        {C}{Gsus4/G}{C}{F}       (A room with thirteen chairs ...)
        {C}{Gsus4/G}{F}{F/F.G}   (An ice cube the size of the ...)

        {C}{Gsus4/G}{C}{F}       (- see pain in your eyes ...)
        {C}{Gsus4/G}{F}{F/F.G}   (- runnin', the game is won ...)

        {C}{Gsus4/G}{C}{F}       (We have never compromised ...)
        {C}{Gsus4/G}{F}{F/G}     (the game is won, I'll be ...)

        {C}{Gsus4/G}{F}{F/F.G}   (- forget it, the game is won ...)

        {C}{Gsus4/G}{C}{F}       (We have never compromised ...)
        {C}{Gsus4/G}{F}{F/F.G}   (oh, the game is won, I'll be ...)

        {C}{Gsus4/G}{F}{F}       (oh-oh, the game is won ...)
        {C....                   (- run)




* riff

     {C}                {Gsus4/G}
 1e ---------------------3-----3-----------
 2B --1------------------1-----0-----------
 3G --0-----0--0h2-0-----0-----0-----------
 4D --2--------------2---0-----0-----------
 5A --3------------------2-----2-----------
 6E ---------------------3-----3-----------

 {C}                {F}
---------------------------3-----------
--1------------------1-----1-----------
--0-----0--0h2-0-----2-----2-----------
--2--------------0-2-3-----3-----------
--3------------------------------------
---------------------------------------


 {C}                {Gsus4/G}
---------------------3-----3-----------
--1------------------1-----0-----------
--0-----0--0h2-0-----0-----0-----------
--2--------------2---0-----0-----------
--3------------------2-----2-----------
---------------------3-----3-----------

 {F}                {F       /F.  G}
--3-----3------------3-----3--3---3----
--1-----1------------1-----1--1---0----
--2-----2------------2-----2--2---0----
--3-----3------------3-----3--3---0----
----------------------------------2----
----------------------------------3----



*** please note ***

h - hammer on
p - pull off
b - bend string up
r - release bend
/ - slide up
\ - slide down
v - vibrato
^ - harmonics




*********************************************************************
---------------------------------------------------------------------
thanks: Jose Alberto (brooklyn@usuarios.retecal.es)
---------------------------------------------------------------------

I got my own transcription of the lyrics (not completed)


"RUN"

You've not ever compromised
I see the pain in your eyes
Don't you worry
The game is one
I'll be there on the run

I'll make you happy
The others are...
Just call me up...
...your big stick
They do it for money
That's what they call fun
I'll be there on the run
A room with thirteen chairs
Three lines ten...
An ice cube that...
I'll be there on the run
I see pain in your eyes
And you know I see it...

We've never compromised
I said i love you a million times
Don't you forget it
The game is one
I'll be there on the run.


---------------------------------------------------------------------

On The Run


You don't ever compromise
I see the pain in your eyes
Don't you worry, the game is won
I'll be there on the run
I'll make you happy, the others are thick
Just call me up, I'll be your big stick
They do it for money, that's what they call fun
I'll be there on the run
A room with thirteen chairs
Three lions, ten polar bears
An ice cube the size of the sun
I'll be there on the run
I see pain in your eyes
And you know I sympathize
I'll come runnin', the game is won
I'll be there on the run
We have never compromised
I'll say I love you a million times
Don't you forget it, the game is won
I'll be there on the run
Don't you forget it, the game is won
I'll be there on the run


---------------------------------------------------------------------
*********************************************************************
chords/tabs transcribed by Shiroh KOUCHI (wildside@mx21.tiki.ne.jp)
http://ww21.tiki.ne.jp/~wildside/
*********************************************************************