============================
"Revien Cherie"
============================
album _Animal Serenade_
(Lou Reed, 2004)

written by Fernando Saunders

sung by Fernando Saunders

Jun 24, 2003
The Wiltern, Los Angeles
============================


        Lovely day
        The sunshine
        A light of love, love divine
        As time strode away

        A test of love
        I bring to you my love
        like a bird who builds your unborn a home
        full of warmth
        I give to you the same test of love

        Revien Cherie
        Revien Cherie

        Sitting all alone in a daze
        I sing a song to you my love
        I wish I were dead, mmmm..
        My love was far away

        A test of love
        I bring to you my love
        like a bird who builds your unborn a home
        full of warmth
        I give to you the same test of love

        Revien Cherie
        Revien Cherie

        Life to me is a share
        To be, to see, to understand each other
        To love one another
        I give to you the same test of love

        Revien Cherie
        Revien Cherie
        Revien Cherie




intro   {A#6}{A#6(onB)}{Cm}{Cm}
        {Fsus4}{F}
        {A#6}{A#6(onB)}{Cm}{Cm}
        {Fsus4}{F}
        {A#6}{A#6(onB)}{Cm}{Cm}
        {Fsus4}{F}
        {A#6}{A#6(onB)}{Cm}{Cm}
        {Fsus4}{F}{A#}{A#}

        {A#6}{A#6(onB)}{Cm}{Cm}    (Lovely day)
        {Fsus4}{F}                 (The sunshine)
        {A#6}{A#6(onB)}{Cm}{Cm}    (A light of love, love divine)
        {Fsus4}{F}{A#}{A#}         (As time strode away)

        {D#}{F}{A#sus4/A#}         (A test of love, I bring to ...)
        {D#}{Asus4}{A}             (- my love, like a bird who ...)
        {D}{Gsus4/G}{C}{Fsus4/F}   (- home, full of warmth ...)

        {A#6}{A#6(onB)}{Cm}{Cm}    (- the same test of love)
        {Fsus4}{F}{D#}{A#}         (Revien Cherie)
        {Fsus4}{F}{D#}{A#}         (Revien Cherie)

        {A#6}{A#6(onB)}{Cm}{Cm}    (Sitting all alone in a daze)
        {Fsus4}{F}                 (I sing a song -)
        {A#6}{A#6(onB)}{Cm}{Cm}    (- to you my love, I wish I ...)
        {Fsus4}{F}{A#}{A#}         (My love was far away)

        {D#}{F}{A#sus4/A#}         (A test of love, I bring to ...)
        {D#}{Asus4}{A}             (- my love, like a bird who ...)
        {D}{Gsus4/G}{C}{Fsus4/F}   (- home, full of warmth ...)

        {A#6}{A#6(onB)}{Cm}{Cm}    (- the same test of love)
        {Fsus4}{F}{D#}{A#}         (Revien Cherie)
        {Fsus4}{F}{D#}{A#}         (Revien Cherie)

guitar  {A#6}{A#6(onB)}{Cm}{Cm}
        {Fsus4}{F}
        {A#6}{A#6(onB)}{Cm}{Cm}
        {Fsus4}{F}
        {A#6}{A#6(onB)}{Cm}{Cm}
        {Fsus4}{F}
        {A#6}{A#6(onB)}{Cm}{Cm}
        {Fsus4}{F}
        {A#6}{A#6(onB)}{Cm}{Cm}
        {Fsus4}{F}{A#}{A#}

        {D#}{F}{A#sus4/A#}         (Life to me is a share)
        {D#}{Asus4}{A}             (To be, to see, to understand -)
        {D}{Gsus4/G}{C}{Fsus4/F}   (- each other, To love one ...)

        {A#6}{A#6(onB)}{Cm}{Cm}    (- the same test of love)
        {Fsus4}{F}{D#}{A#}         (Revien Cherie)
        {Fsus4}{F}{D#}{A#}         (Revien Cherie)
        {Fsus4}{F}{D#..{A#..       (Revien Cherie)




* riff

     {A#6}               {A#6(onB)}
 1e -----------------------------------------
 2B ------3------3----3-------3------3----3--
 3G ----0------0------------0------0---------
 4D -----------------------------------------
 5A --1------1------1-----2------2------2----
 6E -----------------------------------------

 {Cm}                {Cm}
-----------------------------------------
------4------4----4-------4------4-------
----0------0------------0------0---------
-----------------------------------------
--3------3------3-----3------3-----------
------------------------------------0----

 {Fsus4}             {F}
-----------------------------------------
-----------------------------------------
------3------3----3---2------2-----------
----3------3--------------3--------------
--------------------------------------0--
--1------1------1-------1------1-1-3-----

 {A#}               {A#}
---------------------1-------------------
-------------1-------1-------------------
--------3--------3---3-------------------
------3--------------3-------------------
--1------------------1-------------------
-----------------------------------------




*********************************************************************
---------------------------------------------------------------------
thanks: Jose Alberto (brooklyn@usuarios.retecal.es)
---------------------------------------------------------------------

_Animal Serenade_ talking part:

this is a song written by the magnificent fernando,
a beautiful chord combination and his gorgeous voice.
it is called revien cherie.


---------------------------------------------------------------------
thanks: Ed (vufan@tiscali.co.uk)
---------------------------------------------------------------------

I have the lyrics for Revien Cherie from Animal Serenade.


Lovely day
The sunshine
A light of love
Love divine
As time strode away

A test of love
I bring to you my love
Like a bird who builds your unborn a home
Full of warmth
I give to you the same test of love
Revien cherie
Revien cherie

Sitting all alone in a daze
I sing a song to you my love
I wish I were dead
My love was far away

A test of love
I bring to you my love
Like a bird who builds your unborn a home
Full of warmth
I give to you the same test of love
Revien cherie
Revien cherie

Life to me is a share
To be, to see, to understand each other
To love one another
I give to you the same test of love
Revien cherie
Revien cherie
Revien cherie


---------------------------------------------------------------------
*********************************************************************
chords/tabs transcribed by Shiroh KOUCHI (wildside@mx21.tiki.ne.jp)
http://ww21.tiki.ne.jp/~wildside/
*********************************************************************