=========================
"Nobody's Business"
=========================
album _Coney Island Baby_
(Lou Reed, 1976)

written by Lou Reed
=========================


        Hey, if you're moving too fast
        don't you want this thing to last
        But if you start moving slow then -
        hey pretty mama, you just will have to go, because -

        It's nobody's business but my own
        It's nobody's business but my own
        No no no no no no no, no no no no, no no no
        No no no no no no no no, no no no no, no no no

        But if you start acting mean
        then I'll have to mess up the scene
        But if you start treating me nice
        hey now baby, I'm gonna have to raise your price

        Because it's nobody's business but my own
        It's nobody's business but my own
        No no no no no no no, no no no no, no no no
        No no no no, no no, no no no

        Nobody's business
        nobody's business, come on now
        Hey, nobody's business, yeah, but my own
        nobody's business, oh my, no no no
        Nobody's business, no no no no no
        hey, nobody's business, yeah, but my own
        Nobody's business, my own
        no no, no no no
        No no, no no no

        Nobody's business
        nobody's business
        Nobody's business
        nobody's business, but my own now
        ...




intro   {A}{Em}{F/Em.D}{Em}
        {A}{Em}{Am/Em.D}{Em...

                x/A}       bass
        {A}{G}{D}{A}
        {A}{G}{D}{A}

        {A}{G}{D}{A}       (Hey, if you're moving too fast ...)
        {A}{G}{D}{A}       (But if you start moving slow ...)

chorus  {G}{D}{A}{A}       (It's nobody's business but my own)
        {G}{D}{A}{A}       (It's nobody's business but my own)
        {G}{D}{A}{A}       (No no no no no no no, no no no no ...)
        {G}{D}{A}{A}       (No no no no no no no no ...)

        {A}{G}{D}{A}       (But if you start acting mean ...)
        {A}{G}{D}{A}       (But if you start treating me nice ...)

chorus  {G}{D}{A}{A}       (Because it's nobody's business but ...)
        {G}{D}{A}{A}       (It's nobody's business but my own)
        {G}{D}{A}{A}       (No no no no no no no, no no no no ...)
        {G}{D}{A}{A}       (No no no no, no no, no no no)

g.solo  {F}{C}{Gm}{A#/F}
        {F}{C}{Gm}{A#/F}
        {Dm}{Dm}{Dm}{G}
        {Dm}{Dm}{Dm}{G}

coda    {A}{A}{D}{D}       (Nobody's business ...)
        {A}{A}{D}{D}       (Hey, nobody's business ...)
        {A}{A}{D}{D}       (Nobody's business, no no no no no ...)
        {A}{A}{D}{D}       (Nobody's business, my own ...)
        {A}{A}{D}{D}       (No no, no no no)
        {A}{A}{D}{D}       (Nobody's business, nobody's business)
        {A}{A}{D}{D}       (Nobody's business ...)
        ... fade out




* intro

     {A}                {Em}
 1e ------2-2--2-2-2-----0---0-0--0-0-0----
 2B ------2-3--5-3-2p0---0---0-2--3-2-0----
 3G ------2-2--2-2-2p0---0---0-0--0-0-0-0--
 4D ---------------------2-----------------
 5A --0------------------2-----------------
 6E ---------------------------------------

 {F        / Em. D}   {Em}
-------------0---0-----0-----------------
----3-3-1----5\--3-----0-----------------
----2-2-0h2--4\--2-----0-----------------
--3--------------------2-----------------
-----------------------2-----------------
-----------------------0-----------------

 {A}                {Em}
------2-2--2-2-2-----0---0-0--0-0-0----
------2-3--5-3-2-----0---0-2--3-2-0----
----2-2-2--2-2-2-0---0---0-0--0-0-0-0--
-----------------0---2-----------------
--0------------------2-----------------
---------------------------------------

 {Am     / Em. D}   {Em...
------0----0---0-----0-----------------
------3----5\--3-----0-----------------
----2------4\--2-----0-----------------
---------------------2-----------------
--0------------------2-----------------
---------------------0-----------------



h - hammer on
p - pull off
b - bend string up
r - release bend
/ - slide up
\ - slide down
v - vibrato
^ - harmonics



* guitar solo: scale

       10  11  12  13  14  15
1e -|-o-|---|---|-o-|---|-o-|-
2B -|-o-|-o-|---|-o-|---|-o-|-
3G -|-o-|---|-o-|---|---|---|-
4D -|---|---|-o-|---|---|---|-
5A -|---|---|---|---|---|---|-
6E -|---|---|---|---|---|---|-




*********************************************************************
transcribed by Shiroh KOUCHI (wildside@mx21.tiki.ne.jp)
http://ww21.tiki.ne.jp/~wildside/
*********************************************************************