======================
"Mother"
======================
unreleased live
(Lou Reed, 1990)

written by John Lennon

May 05, 1990
Liverpool, UK
(John Lennon Tribute)
======================


        Mother, you had me, but I never had you
        I, I wanted you, but you didn't want me
        So I, I gotta tell you
        Goodbye
        goodbye

        Father, you left me, but I never left you
        I, I needed you, but you didn't need me
        So I, I gotta tell you
        Goodbye
        goodbye

        Children don't do what I have done
        I couldn't walk and I tried to run
        So I, I gotta tell you
        Goodbye
        goodbye

        Mamma don't go
        daddy come home
        Mamma don't go
        daddy please come home
        Mamma don't go
        daddy come home
        Mamma don't go
        daddy come home



intro   {G}{G}

        {G}{D}{G}{G}       (Mother, you had me, but I never had you)
        {C}{C}{D}{D}       (I, I wanted you, but you didn't ...)
        {G}{G7}{C}{C}      (- I, I gotta tell you)
        {G}{D}{G}{G}       (Goodbye, goodbye)

        {G}{D}{G}{G}       (Father, you left me, but I never ...)
        {C}{C}{D}{D}       (I, I needed you, but you didn't ...)
        {G}{G7}{C}{C}      (- I, I gotta tell you)
        {G}{D}{G}{G}       (Goodbye, goodbye)

        {G}{D}{G}{G}       (Children don't do what I have done)
        {C}{C}{D}{D}       (I couldn't walk and I tried to run ...)
        {G}{G7}{C}{C}      (- I, I gotta tell you)
break   {G}{D}{G}{G}       (Goodbye, goodbye, Mamma don't -)

coda    {D}{D7}{G}{G7}     (- go, daddy come home, Mamma don't -)
        {D}{D7}{G}{G7}     (- go, daddy please come home, Mamma ...)
        {D}{D7/C}{G}{G7}   (- go, daddy come home, Mamma don't -)
        {D}{D7}{G...       (- go, daddy come home)



* lick on verse

    - I,                    I gotta tell you
     {G}              {G7}          {C}            {C}
 1e --3...----------0--1...----------------------------------------
 2B --0...----------0--0...----------1...-----------1...-----------
 3G --0...----------0--0...----------0...-----------0...-----------
 4D --0...----------0--0...----------2...-----------2...-----------
 5A --2...----------2--2...----------3...-----------3...-----------
 6E --3...----------3--3...----------------------------------------




* lick on coda

    - go                  daddy come home             Mamma don't -
     {D}              {D7}          {G}            {G7}
 1e --5...---------5-7-8...----------3...-------3-0-1...-----------
 2B --7...---------7-7-7...----------3...-------3-0-0...-----------
 3G --7...---------7-7-7...----------0...-------0-0-0...-----------
 4D --0...---------0-0-0...----------0...-------0-0-0...-----------
 5A ---------------------------------------------------------------
 6E ---------------------------------------------------------------




*********************************************************************
transcribed by Shiroh KOUCHI (wildside@mx21.tiki.ne.jp)
http://ww21.tiki.ne.jp/~wildside/
*********************************************************************