======================
"Jealous Guy"
======================
unreleased live
(Lou Reed, 1990)

written by John Lennon

May 05, 1990
Liverpool, UK
(John Lennon Tribute)
======================


        I was dreaming of the past
        and my heart was beating fast
        I began to lose control
        I began to lose control

        I didn't mean to make you cry
        I'm sorry that I made you cry
        I didn't wanna hurt you
        just a jealous guy

        I was feeling insecure
        you might not love me any more
        I was shivering inside
        I was shivering inside

        I didn't mean to hurt you
        I'm sorry that I made you cry
        I didn't mean to hurt you
        I'm just a jealous guy

        I didn't mean to hurt you
        I'm sorry that I made you cry
        I didn't wanna hurt you
        just a jealous guy

        I was trying to catch your eyes
        thought that you were trying to hide
        I was swallowing my pain
        I was swallowing my pain

        I didn't mean to hurt you
        I'm sorry that I made you cry
        I didn't wanna hurt you
        I'm just a jealous guy
        watch out
        I'm just a jealous guy
        look out
        I'm just a jealous guy



intro   {G/Em}{D}{D/D7}{Em}

        {G/Em}{D}{D/D7}{Em/Em7}         (I was dreaming of the ...)
        {A7}{D}{Em/D}{C/C.D}            (I began to lose ...)

chorus  {G/F}{C}{G/F}{A#}               (I didn't mean to make ...)
        {G/G(onF#)}{Em/Em7}{C/G}{G/     (I didn't wanna hurt ...)

        {G/Em}{D}{D/D7}{Em/Em7}         (I was feeling insecure ...)
        {A7}{D}{Em/D}{C/C.D}            (I was shivering inside ...)

chorus  {G/F}{C/C.D}{G/F}{A#}           (I didn't mean to hurt ...)
        {G/G(onF#)}{Em/Em7}{C/G}{G/     (I didn't mean to hurt ...)

solo    {G/Em}{D}{D}{Em/Em7}
        {A7}{D}{Em/D}{C}

chorus  {G/F}{C/C.D}{G/F}{A#}           (I didn't mean to hurt ...)
        {G/G(onF#)}{Em/Em7}{C/G}{G/     (I didn't wanna hurt ...)

        {G/Em}{D}{D/D7}{Em/Em7}         (I was trying to catch ...)
        {A7}{D}{Em/D}{C/C.D}            (I was swallowing my ...)

chorus  {G/F}{C/C.D}{G/F}{A#}           (I didn't mean to hurt ...)
        {G/G(onF#)}{Em/Em7}{C/G}{C/G}   (I didn't wanna hurt ...)
        {C/G...                         (I'm just a jealous guy)




* guitar solo: scale

         2   3   4   5   6   7   8   9  10  11  12  13  14
 1e -|---|---|---|---|---|---|---|---|---|---|---|---|---|- ...
 2B -|---|---|---|---|---|---|---|---|---|---|---|---|---|- ...
 3G -|-o-|---|-o-|---|---|-o-|---|-o-|---|-o-|-o-|---|-o-|- ...
 4D -|---|---|---|---|---|---|---|---|---|---|---|---|---|- ...
 5A -|---|---|---|---|---|---|---|---|---|---|---|---|---|- ...
 6E -|---|---|---|---|---|---|---|---|---|---|---|---|---|- ...







===========================================================
"Jealous Guy"
===========================================================
unreleased live *
(Lou Reed, 2001)

Oct 02, 2001
Radio City Music Hall, NYC
(Come Together - A Night For John Lennon's Words and Music)

* officially available on DVD/VHS (released in 2002)
===========================================================


        I was dreaming of the past
        and my heart was beating fast
        I began to lose control
        I, I, I began to lose control

        I didn't mean to hurt you
        I'm sorry that I made you, I made you cry
        I didn't wanna hurt you
        I'm just a jealous guy

        I was feelin' in-, insecure
        you might not love, you might not love
        you might not love me any more
        I was shi-, shivering inside
        ooohhh, ah-yeah, I was shivering inside

        I didn't mean to hurt you
        I didn't, didn't, didn't, mean to make you cry
        I, I didn't wanna hurt you
        I'm just a jealous guy

        I didn't mean to hurt you
        I'm sorry that I made you cry
        I didn't wanna hurt you
        just a jealous guy

        I didn't mean, I didn't mean to hurt you
        I'm sorry that I made you cry, ooohhh-ah
        I didn't wanna hurt you
        I'm just a jealous guy

        I was trying to catch your eyes
        I thought that, that you were trying to hide
        I was sw-, swallowing my pain
        oh, oh, oh, I was swallowing my pain

        I didn't mean, I didn't mean to hurt your love
        I'm sorry, ah-huh, made you cry
        I didn't mean to hurt you, ooohhh
        I'm just a jealous guy
        you watch out
        I'm just a jealous guy
        look out
        I'm just a jealous guy
        watch out
        I'm just a jealous guy



* capo on 2 fret

         (0) (1) (2) (3) (4) (5) (6) (7) (8) (9)(10)(11)(12)
                  0   1   2   3   4   5   6   7
1e ... --||---|-f#|---|---|---|---|---|---|---|---|---|---|- ...
2B ... --||---|-C#|---|---|---|---|---|---|---|---|---|---|- ...
3G ... --||---|-A-|---|---|---|---|---|---|---|---|---|---|- ...
4D ... --||---|-E-|---|---|---|---|---|---|---|---|---|---|- ...
5A ... --||---|-B-|---|---|---|---|---|---|---|---|---|---|- ...
6E ... --||---|-F#|---|---|---|---|---|---|---|---|---|---|- ...



capo on 2 fret, play G form

     (2) (3) (4) (5) (6) (7)
      0   1   2   3   4   5
-|---||---|---|-o-|---|---|- ...
-|-o-||---|---|---|---|---|- ...
-|-o-||---|---|---|---|---|- ...
-|-o-||---|---|---|---|---|- ...
-|---||---|-o-|---|---|---|- ...
-|---||---|---|-o-|---|---|- ...

     (2) (3) (4) (5) (6) (7)
      0   1   2   3   4   5
-|---||---|---|-o-|---|---|- ...
-|---||---|---|-o-|---|---|- ...
-|---||---|---|---|-o-|---|- ...
-|---||---|---|---|---|-o-|- ...
-|---||---|---|---|---|-o-|- ...
-|---||---|---|-o-|---|---|- ...


capo on 2 fret, play Em form

     (2) (3) (4) (5) (6) (7)
      0   1   2   3   4   5
-|-o-||---|---|---|---|---|- ...
-|-o-||---|---|---|---|---|- ...
-|-o-||---|---|---|---|---|- ...
-|---||---|-o-|---|---|---|- ...
-|---||---|-o-|---|---|---|- ...
-|-o-||---|---|---|---|---|- ...


capo on 2 fret, play D form

     (2) (3) (4) (5) (6) (7)
      0   1   2   3   4   5
-|---||---|-o-|---|---|---|- ...
-|---||---|---|-o-|---|---|- ...
-|---||---|-o-|---|---|---|- ...
-|-o-||---|---|---|---|---|- ...
-|---||---|---|---|---|---|- ...
-|---||---|---|---|---|---|- ...

     (2) (3) (4) (5) (6) (7) (8) (9)
      0   1   2   3   4   5   6   7
-|---||---|---|---|---|-o-|---|---|- ...
-|---||---|---|---|---|---|---|-o-|- ...
-|---||---|---|---|---|---|---|-o-|- ...
-|---||---|---|---|---|---|---|-o-|- ...
-|---||---|---|---|---|-o-|---|---|- ...
-|---||---|---|---|---|---|---|---|- ...


capo on 2 fret, play D7 form

     (2) (3) (4) (5) (6) (7)
      0   1   2   3   4   5
-|---||---|-o-|---|---|---|- ...
-|---||-o-|---|---|---|---|- ...
-|---||---|-o-|---|---|---|- ...
-|-o-||---|---|---|---|---|- ...
-|---||---|---|---|---|---|- ...
-|---||---|---|---|---|---|- ...


capo on 2 fret, play Em6 form

     (2) (3) (4) (5) (6) (7)
      0   1   2   3   4   5
-|-o-||---|---|---|---|---|- ...
-|---||---|-o-|---|---|---|- ...
-|-o-||---|---|---|---|---|- ...
-|---||---|-o-|---|---|---|- ...
-|---||---|-o-|---|---|---|- ...
-|-o-||---|---|---|---|---|- ...


capo on 2 fret, play C form

     (2) (3) (4) (5) (6) (7)
      0   1   2   3   4   5
-|-o-||---|---|---|---|---|- ...
-|---||-o-|---|---|---|---|- ...
-|-o-||---|---|---|---|---|- ...
-|---||---|-o-|---|---|---|- ...
-|---||---|---|-o-|---|---|- ...
-|---||---|---|---|---|---|- ...

     (2) (3) (4) (5) (6) (7)
      0   1   2   3   4   5
-|---||---|---|-o-|---|---|- ...
-|---||---|---|---|---|-o-|- ...
-|---||---|---|---|---|-o-|- ...
-|---||---|---|---|---|-o-|- ...
-|---||---|---|-o-|---|---|- ...
-|---||---|---|---|---|---|- ...


capo on 2 fret, play F form

     (2) (3) (4) (5) (6) (7)
      0   1   2   3   4   5
-|---||-o-|---|---|---|---|- ...
-|---||-o-|---|---|---|---|- ...
-|---||---|-o-|---|---|---|- ...
-|---||---|---|-o-|---|---|- ...
-|---||---|---|-o-|---|---|- ...
-|---||-o-|---|---|---|---|- ...


capo on 2 fret, play A# form

     (2) (3) (4) (5) (6) (7)
      0   1   2   3   4   5
-|---||-o-|---|---|---|---|- ...
-|---||---|---|-o-|---|---|- ...
-|---||---|---|-o-|---|---|- ...
-|---||---|---|-o-|---|---|- ...
-|---||-o-|---|---|---|---|- ...
-|---||---|---|---|---|---|- ...


capo on 2 fret, play A#(onA) form

     (2) (3) (4) (5) (6) (7)
      0   1   2   3   4   5
-|---||---|---|---|---|---|- ...
-|---||---|---|-o-|---|---|- ...
-|---||---|---|-o-|---|---|- ...
-|---||---|---|-o-|---|---|- ...
-|-o-||---|---|---|---|---|- ...
-|---||---|---|---|---|---|- ...


capo on 2 fret, play G(onF#) form

     (2) (3) (4) (5) (6) (7)
      0   1   2   3   4   5
-|---||---|---|-o-|---|---|- ...
-|-o-||---|---|---|---|---|- ...
-|-o-||---|---|---|---|---|- ...
-|-o-||---|---|---|---|---|- ...
-|---||---|-x-|---|---|---|- ...
-|---||---|-o-|---|---|---|- ...


capo on 2 fret, play Em7 form

     (2) (3) (4) (5) (6) (7)
      0   1   2   3   4   5
-|-o-||---|---|---|---|---|- ...
-|-o-||---|---|---|---|---|- ...
-|-o-||---|---|---|---|---|- ...
-|-o-||---|---|---|---|---|- ...
-|---||---|-o-|---|---|---|- ...
-|-o-||---|---|---|---|---|- ...

     (2) (3) (4) (5) (6) (7)
      0   1   2   3   4   5
-|-o-||---|---|---|---|---|- ...
-|---||---|---|-o-|---|---|- ...
-|-o-||---|---|---|---|---|- ...
-|-o-||---|---|---|---|---|- ...
-|---||---|-o-|---|---|---|- ...
-|-o-||---|---|---|---|---|- ...




intro   .x}                                drums
        {G/Em}{D}{D/D7}{Em}

        {G/Em}{D}{D/D7}{Em}                (I was dreaming of ...)
        {Em6}{D}{Em}{C}                    (I began to lose ...)

chorus  {G/F}{C/C.D}{G/F}{A#/A#.A#(onA)}   (I didn't mean to ...)
        {G/G(onF#)}{Em/Em7}{C/G}{G/        (I didn't wanna hurt ...)

        {G/Em}{D}{D/D7}{Em}                (I was feelin' in-, ...)
        {Em6}{D}{Em}{C}                    (I was shi-, ...)

chorus  {G/F}{C/C.D}{G/F}{A#/A#.A#(onA)}   (I didn't mean to ...)
        {G/G(onF#)}{Em/Em7}{C/G}{G/        (- cry, I, I didn't ...)

solo    {G/Em}{D}{D/D7}{Em}
        {Em6}{D}{Em}{C}

chorus  {G/F}{C}{G/F}{A#/A#.A#(onA)}       (I didn't mean, I ...)
        {G/G(onF#)}{Em/Em7}{C/G}{G/        (I didn't wanna hurt ...)

        {G/Em}{D}{D/D7}{Em}                (I was trying to ...)
        {Em6}{D}{Em}{C}                    (I was sw-, ...)

chorus  {G/F}{C/C.D}{G/F}{A#/A#.A#(onA)}   (I didn't mean, I ...)
        {G/G(onF#)}{Em/Em7}{C/G}{C/G}      (- cry, I didn't ...)
        {C/G}{C/G}{C/G}{C/G...             (I'm just a jealous ...)




* guitar solo by Mike Rathke (capo on 2 fret)

      {G           /Em}         {D}
*1f# -----------------------------------------------------
*2C# -----------------------------------------------------
*3A  -----------------------------------------------------
*4E  --------------5-------------------------------4--5---
*5B  -------/5--7------7--5--7----------------------------
*6F# ----------------------------5h7--5-------------------

 {D           /D7}         {Em}
-----------------------------------------------------
-----------------------------------------------------
-----------------------------------------------------
--4v--x----------------------------------------------
--------------5---------------------------------2-3--
--------5--7------7--5--7---2b3r2b3r2b3r2--0---------

 {Em6}                     {D}
--------------------------------------------------------
--------------------------------------------------------
--------------------------------------------------------
-----------------------------------7b9r7-5-7--7b9r7-5v--
--4---------------0--0h2-5--5---------------------------
--------0--2--3-----------------------------------------

 {Em}                      {C}
----------------------------------------------------------
---------------------------------------8----8-----8-------
---------------------4--7---9v----9v---7h9--7h9---7-------
-----------4--5---7---------------------------------9-7\--
--7-----7-------------------------------------------------
----------------------------------------------------------



*** please note ***

h - hammer on
p - pull off
b - bend string up
r - release bend
/ - slide up
\ - slide down
v - vibrato
^ - harmonics




*********************************************************************
transcribed by Shiroh KOUCHI (wildside@mx21.tiki.ne.jp)
http://ww21.tiki.ne.jp/~wildside/
*********************************************************************