=======================================
"I'll Keep It With Mine"
=======================================
unreleased live
(The Velvet Underground, 1966)

written by Bob Dylan

Feb 06, 1966
Film Makers Cinematheque, New York City
=======================================


        You'll search, babe
        at any cost
        But how long, babe
        can you search for what's not lost

        Everybody will help you
        Some people are very kind
        But if I can save you any time

        Come on, give it to me
        I'll keep it with mine

        I can't help it
        if you might think I am odd
        If I say I'm not loving you for what you are
        but for what you're not

        Everybody will help you
        Discover what you set out to find
        But if I can save you any time

        Come on, give it to me
        I'll keep it with mine

        The train leaves
        at half past ten
        But it'll be back
        tomorrow same time again

        The conductor, he's weary
        still stuck on the line
        But if I can save you any time

        Come on, give it to me
        I'll keep it with mine



* all the strings downtuned a whole-tone

 1d ----- * downtuned a whole-tone (from e to d)
 2A ----- * downtuned a whole-tone (from B to A)
 3F ----- * downtuned a whole-tone (from G to F)
 4C ----- * downtuned a whole-tone (from D to C)
 5G ----- * downtuned a whole-tone (from A to G)
 6D ----- * downtuned a whole-tone (from E to D)



intro   ...tape skipped...
        .G}{C}{G}{C}         (You'll -)

        {G}{C}{G}{C}         (- search, babe at any cost, But how -)
        {G}{C}{G}{C}         (- long, babe, can you search for ...)

        {G}{C}{G}{C}         (Everybody will help you)
        {G}{C}{C}{C}         (Some people are very kind)
        {G}{C}{G}{C}         (But if I can save you any time)

        {G}{G}{C}{D}         (Come on, give it to me ...)
        {G}{C}{G}{C}         (- mine)

        {G}{C}{G}{C}         (I can't help it ...)
        {G}{C}{G}{C}         (If I say I'm not loving you ...)

        {G}{C}{G}{C}         (Everybody will help you ...)
        {G}{C}{C}{C}{C/      (Discover what you set out to find)
        {G}{C}{G}{C}         (But if I can save you any time)

        {G}{G}{C}{D}{D}      (Come on, give it to me ...)
        {G}{C}{G}{C}         (- mine)

        {G}{C}{G}{C}         (The train leaves at half past ten)
        {G}{C}{G}{C}         (But it'll be back ...)

        {G}{C}{G}{C}{C}      (The conductor, he's weary ...)
        {G}{C}{G}{C}         (But if I can save you any time)

        {G}{G}{C}{D}         (Come on, give it to me ...)

        {G}{C}{G}{C}         (- mine)
        {G}{C}{G...








========================
"I'll Keep It With Mine"
(key=E takes)
========================
rehearsal
(Lou Reed/Nico, 1970)

Apr 1970
hotel room, NYC
========================


        You will search, babe
        at any cost
        But how long, babe
        can you search for what's not lost

        Everybody will help you
        Some people are very kind
        But if I can save you any time

        Come on, give it to me
        I'll keep it with mine



        You will search, babe
        at any cost
        But how long, babe
        can you search for what's not lost

        Everybody will help you


        [guide vocal by Lou]
        Everybody will help you
        Some people are



        You will search, babe
        at any cost
        But how long, babe
        can you search for what's not lost

        Everybody will help you
        Some people are very kind
        But if I can save you any time

        Come on, give it to me
        I'll keep it with mine

        I can't help it
        if you might think I am odd
        If I say I'm not loving you for what you are
        but for what you're not

        Everybody will help you
        Discover what you set out to find
        But if I can save you any time

        Come on, give it to me
        I'll keep it with mine



        You will search, babe
        at any cost
        But how long, babe
        can you search for what's not lost

        Everybody will help you
        Discover what you set out to find
        But if I can save you any time



* all the strings downtuned a whole-tone

 1d ----- * downtuned a whole-tone (from e to d)
 2A ----- * downtuned a whole-tone (from B to A)
 3F ----- * downtuned a whole-tone (from G to F)
 4C ----- * downtuned a whole-tone (from D to C)
 5G ----- * downtuned a whole-tone (from A to G)
 6D ----- * downtuned a whole-tone (from E to D)



intro   {E}{A}{E..

        {E..



intro   {E}{A}{E}{A}         (You will -)

        {E}{A}{E}{A}         (- search, babe, at any cost ...)
        {E}{A}{E}{A}         (- long, babe, can you search for ...)

        {E}{E}{E}{E}         (Everybody will help you)
        {A}{A}{A}{A}         (Some people are very kind, But if -)
        {E}{A}{E}{A}         (- I can save you any time)

        {E}{C#m}{A}{B}       (Come on, give it to me ...)
        {E}{A}{E.            (- mine)



intro   {E}{A}{E}{A}
        {E}{A}{E}{A}         (You will -)

        {E}{A}{E}{A}         (- search, babe, at any cost ...)
        {E}{A}{E}{A}         (- long, babe, can you search for ...)

        {E}{E}{E/            (Everybody will help you)



Lou     {E}{E}{E}            (Everybody will help you)
        {A}{A.               (Some people are)



intro   {E}{A}{E}{A}         (You will -)

        {E}{A}{E}{A}         (- search, babe, at any cost ...)
        {E}{A}{E}{A}         (- long, babe, can you search for ...)

        {E/A}{E/A}{E}{E}     (Everybody will help you)
        {A}{A}{A}{A}         (Some people are very kind, But if -)
        {E}{A}{E}{A}         (- I can save you any time)

        {E}{C#m}{A}{B}       (Come on, give it to me ...)
        {E}{A}{E}{A}         (- with mine, I can't -)

        {E}{A}{E}{A}         (- help it, if you might think ...)
        {E}{A}{E}{A}         (- say I'm not loving you for what ...)

        {E/A}{E/A}{E/A}{E}   (Everybody will help you)
        {E}                  (Dis-)
        {A}{A}{A}{A}         (-cover what you set out to find ...)
        {E}{A}{E}{A}         (- I can save you any time)

        {E}{C#m}{A}{B}       (Come on, give it to me ...)
        {E}{A}               (- mine)



intro   {E}{A}{E}{A}         (You will -)

        {E}{A}{E}{A}         (- search, babe, at any cost ...)
        {E}{A}{E}{A}         (- long, babe, can you search for ...)

        {E/A}{E/A}{E/A}{E}   (Everybody will help you ...)
        {A}{A}{A}            (- what you set out to find, But if -)
        {E}{A}{E}{A/         (- I can save you any time)








========================
"I'll Keep It With Mine"
(key=C takes)
========================
rehearsal
(Lou Reed/Nico, 1970)

Apr 1970
hotel room, NYC
========================


        I can't help it
        if you might think I am odd
        If I say I'm not loving you for what you are
        but for what you're not

        Everybody will help you
        Discover what you set out to find
        But if I can save you any time

        Come on, give it to me
        I'll keep it with mine

        The train leaves
        at half past ten
        But it'll be back
        tomorrow same time again

        The conductor, he's weary
        still stuck on the line
        But if I can save you any time

        Come on, give it to me
        I'll keep it with mine



        You will search, babe
        at any cost
        But how long, babe
        can you search for what's not lost

        Everybody will help you
        Some people are very kind
        But if I can save you any time

        Come on, give it to me
        I'll keep it with mine

        I can't help it
        if you might think I am odd
        If I say I'm not loving you for what you are
        but for what you're not

        Everybody will help you
        Discover what you set out to find
        But if I can save you any time

        Come on, give it to me
        I'll keep it with mine

        The train leaves
        at half past ten
        But it'll be back
        tomorrow same time again

        The conductor, he's weary
        still stuck on the line
        But if I can save you any time

        Come on, give it to me
        I'll keep it with mine



* capo on 5 fret / all the strings downtuned a whole-tone
(note:
These "key=C" takes has different pitch from other "key=E" takes.
(as half note down.) so total "1 + 1/2" tone down.
This tuning pitch is same as (similer to) "Jessie James",
"Little Queenie", "Little Sister (take 3 and 4)".

          (0) (1) (2) (3) (4) (5) (6) (7) (8) (9)(10)(11)(12)
                               0   1   2   3   4   5   6   7
*1d ... --||---|---|---|---|-g-|---|---|---|---|---|---|---|- ...
*2A ... --||---|---|---|---|-D-|---|---|---|---|---|---|---|- ...
*3F ... --||---|---|---|---|-A#|---|---|---|---|---|---|---|- ...
*4C ... --||---|---|---|---|-F-|---|---|---|---|---|---|---|- ...
*5G ... --||---|---|---|---|-C-|---|---|---|---|---|---|---|- ...
*6D ... --||---|---|---|---|-G-|---|---|---|---|---|---|---|- ...



intro    G}
        {C}{F}{C}{F}       (I can't -)

        {C}{F}{C}{F}       (- help it, if you might think I ...)
        {C}{F}{C}{F}       (- say I'm not loving you for what ...)

        {C}{C}{C}{C}       (Everybody will help you)
        {C}                (Dis-)
        {C}{C}{F}{F}       (-cover what you set out to find ...)
        {C}{F}{C}{F}       (- I can save you any time)

        {C}{Am}{F}{G}      (Come on, give it to me ...)
        {G}                (- with -)
        {C}{F}{C}{F}       (- mine, The -)

        {C}{F}{C}{F}       (- train leaves, at half past ten ...)
        {C}{F}{C}{F}       (- it'll be back, tomorrow same time ...)

        {C}{F}{C}{F}       (- ductor, he's weary ...)
        {F}                (But if -)
        {C}{F}{C}{F}       (- I can save you any time)

        {C}{Am}{F}{G}      (Come on, give it to me ...)
        {G}                (- with -)
        {C}{F}{C}{F}       (- mine)
        {C..



intro   {C}{F}{C}{F}       (You will -)

        {C}{F}{C}{F}       (- search, babe, at any cost ...)
        {C}{F}{C}{F}       (- long, babe, can you search for ...)

        {C/F}{C/F}{C}{C}   (Everybody will help you)
        {F}{F}{F}{F}       (Some people are very kind, But if -)
        {C}{F}{C}{F}       (- I can save you any time)

        {C}{Am}{F}{G}      (Come on, give it to me ...)
        {C}{F}{C}{F}       (- mine, I can't -)

        {C}{F}{C}{F}       (- help it, if you might think I ...)
        {C}{F}{C}{F}       (- say I'm not loving you for what ...)

        {C/F}{C/F}{F}{F}   (Everybody will help you)
        {F}
        {F}{F}{F}{F}       (Discover what you set out to find ...)
        {C}{F}{C}{F}       (- I can save you any time)

        {C}{Am}{F}{G}      (Come on, give it to me ...)
        {G}                (- with -)
        {C}{F}{C}{F}       (- mine, The -)

        {C}{F}{C}{F}       (- train leaves, at half past ten ...)
        {C}{F}{C}{F}       (- be back, tomorrow same time again ...)

        {C}{F}{C}{F}       (-ductor, he's weary ...)
        {F}                (But if -)
        {C}{F}{C}{F}       (- I can save you any time)

        {C}{Am}{F}{G}      (Come on, give it to me ...)
        {G}                (- with -)
        {C}{F}{C}{F}       (- mine)
        {C...




* chord forms
(capo on 5 fret / all the strings downtuned a whole-tone)

            G}
*1g ------------
*2D ------------
*3A#------------
*4F ------------
*5C -----0--2---
*6G --3---------

 {C}                       {F}
------------------------------------------------------
--------------1...------------------1---1...----------
----------0---0...--------------0h2-----2...----------
------0h2-----2...----0--2--3-----------3...----------
--3-----------3...------------------------------0--2--
------------------------------------------------------

 {C}                       {F}
------------------------------------------------------
--------------1...------------------1---1...----------
----------0---0...--------------0h2-----2...----------   ...
------0h2-----2...----0--2--3-----------3...----------
--3-----------3...------------------------------0--2--
------------------------------------------------------



*** please note ***

h - hammer on
p - pull off
b - bend string up
r - release bend
/ - slide up
\ - slide down
v - vibrato
^ - harmonics








==================================
"I'll Keep It With Mine"
==================================
album _Chelsea Girl_
(Nico, 1967)

acoustic guitar by Jackson Browne

* Lou didn't play on this version.
(transcribed as a reference)
==================================


        You'll search, babe
        at any cost
        But how long, babe
        can you search for what's not lost

        Everybody will help you
        Some people are very kind
        But if I can save you any time

        Come on, give it to me
        I'll keep it with mine

        I can't help it
        if you might think I am odd
        If I say I'm not loving you for what you are
        but for what you're not

        Everybody will help you
        Discover what you set out to find
        But if I can save you any time

        Come on, give it to me
        I'll keep it with mine

        The train leaves
        at half past ten
        But it'll be back
        tomorrow same time again

        The conductor, he's weary
        still stuck on the line
        But if I can save you any time

        Come on, give it to me
        I'll keep it with mine



* capo on 2 fret

         (0) (1) (2) (3) (4) (5) (6) (7) (8) (9)(10)(11)(12)
                  0   1   2   3   4   5   6   7
1e ... --||---|-f#|---|---|---|---|---|---|---|---|---|---|- ...
2B ... --||---|-C#|---|---|---|---|---|---|---|---|---|---|- ...
3G ... --||---|-A-|---|---|---|---|---|---|---|---|---|---|- ...
4D ... --||---|-E-|---|---|---|---|---|---|---|---|---|---|- ...
5A ... --||---|-B-|---|---|---|---|---|---|---|---|---|---|- ...
6E ... --||---|-F#|---|---|---|---|---|---|---|---|---|---|- ...



        {C}{F}{C}
        {C}{C}{C}{C}             (You'll -)

        {C}{F}{C}{F}             (- search, babe, at any cost ...)
        {C}{F}{C}{F}             (- long, babe, can you search ...)

        {C/C.F}{C/F.C}{F/C}{F}   (Everybody will help you)
        {F}{F}{F}{F}             (Some people are very kind ...)
        {C}{Am}{C}{Am}           (- I can save you any time)

        {C}{Am}{F}{G}            (Come on, give it to me ...)
        {C}{Am}{C}{C}            (- mine, I can't -)

        {C}{F}{C}{F}             (- help it if you might think ...)
        {C}{F}{C}{F}             (- say I'm not loving you for ...)

        {C/C.F}{C/F.C}{F/C}{F}   (Everybody will help you)
        {F}{F}{F}{F}             (Discover what you set out to find)
        {F}                      (But if -)
        {C}{Am}{C}{Am}           (- I can save you any time)

        {C}{Am}{F}{G}            (Come on, give it to me ...)
        {G}                      (- with -)
        {C}{Am}{C}{C}            (- mine, The -)

        {C}{F}{C}{F}             (- train leaves at half past ...)
        {C}{F}{C}{F}             (- it'll be back tomorrow same ...)

        {C/C.F}{C/F.C}{F}{F}     (-ductor, he's weary still ...)
        {F}                      (But if -)
        {C}{Am}{C}{Am}           (I can save you any time)

        {C}{Am}{F}{G}            (Come on, give it to me ...)
        {G}                      (- with -)
        {C}{Am}{C...             (- mine)




* rhythm

  Every          body   will   help you
   __   __   __   __     __   __   __   __
| / /  / /  / /  / /  | / /  / /  / /  / /  |
{ C       / C  . F   }{ C     /F      .C    }

   __   __   __   __     __   __   __   __
| / /  / /  / /  / /  | / /  / /  / /  / /  |
{ F     /C           }{ F                   }




* chord forms (capo on 2 fret)

    - search, babe,                               at any -
     {C}                       {F}
*1f#--0...----------------------0...----------------------
*2C#--1...----------------------1...----------------------
*3A --0...----------------------2...----------------------
*4E --2...----------------------3...----------------------
*5B --3...----------------------3...----------------------
*6F#------------------------------------------------------

- cost                                        But how -
 {C}                       {F}
--0...----------------------0...----------------------
--1...----------------------1...----------------------
--0...----------------------2...----------------------
--2...----------------------3...----------------------
--3...----------------------3...----------------------
------------------------------------------------------

- long, babe,                   can you search for what's -
 {C}                       {F}
--0...----------------------0...----------------------
--1...----------------------1...----------------------
--0...----------------------2...----------------------
--2...----------------------3...----------------------
--3...----------------------3...----------------------
------------------------------------------------------

- not lost
 {C}                       {F}
--0...----------------------0...----------------------
--1...----------------------1...----------------------
--0...----------------------2...----------------------
--2...----------------------3...----------------------
--3...----------------------3...----------------------
------------------------------------------------------

  Everybody                 will help you
 {C         / C . F}       {C         / F . C}
--0..---------0---0---------0..---------0---0---------
--1..---------1---1---------1..---------1---1---------
--0..---------0---2---------0..---------2---0---------
--2..---------2---3---------2..---------3---2---------
--3..---------3---3---------3..---------3---3---------
------------------------------------------------------


 {F         / C}           {F}
--0..---------0..-----------0...----------------------
--1..---------1..-----------1...----------------------
--2..---------0..-----------2...----------------------
--3..---------2..-----------3...----------------------
--3..---------3..-----------3...----------------------
------------------------------------------------------

 Some people are            very -
 {F}                       {F}
--0...----------------------0...----------------------
--1...----------------------1...----------------------
--2...----------------------2...----------------------
--3...----------------------3...----------------------
--3...----------------------3...----------------------
------------------------------------------------------

- kind                                      But if -
 {F}                       {F}
--0...----------------------0...----------------------
--1...----------------------1...----------------------
--2...----------------------2...----------------------
--3...----------------------3...----------------------
--3...----------------------3...----------------------
------------------------------------------------------

- I                                  can save you any -
 {C}                       {Am}
--3...-----------------------3...---------------------
--1...-----------------------1...---------------------
--0...-----------------------2...---------------------
--2...-----------------------2...---------------------
--3...-------------------2---0...---------------0h2---
------------------------------------------------------

- time
 {C}                       {Am}
--3...-----------------------3...---------------------
--1...-----------------------1...---------------------
--0...-----------------------2...---------------------
--2...-----------------------2...---------------------
--3...-------------------2---0...---------------0h2---
------------------------------------------------------

 Come on,                    give it to me
 {C}                       {Am}
--3...-----------------------3...---------------------
--1...-----------------------1...---------------------
--0...-----------------------2...---------------------
--2...-----------------------2...---------------------
--3...-------------------2---0...---------------------
--------------------------------------------------3---

 I'll                        keep it with -
 {F}                        {G}
--0...-----------------------3...---------------------
--1...-----------------------0...---------------------
--2...-----------------------0...---------------------
--3...-----------------------0...---------------------
--3...-----------------------2...---------------------
-----------------------------3...---------------------

- mine
 {C}                       {Am}
--3...-----------------------3...---------------------
--1...-----------------------1...---------------------
--0...-----------------------2...---------------------
--2...-----------------------2...---------------------
--3...-------------------2---0...---------------0h2---
------------------------------------------------------

 {C}                        {C}
--0--------------------------0------------------------
--1--------------------------1------------------------
--0--------------------------0------------------------
--2--------------------------2------------------------
--3----------3---3-----------3------------3-----------
----------3----------3---------------3----------3-----



*** please note ***

h - hammer on
p - pull off
b - bend string up
r - release bend
/ - slide up
\ - slide down
v - vibrato
^ - harmonics




*********************************************************************
transcribed by Shiroh KOUCHI (wildside@mx21.tiki.ne.jp)
http://ww21.tiki.ne.jp/~wildside/
*********************************************************************