================================
"I Found Her"
================================
album _Nils_
(Nils Lofgren, 1979)

written by Nils Lofgren/Lou Reed
================================


        Hidin' underneath the rock, she was, she was
        that me tell you all messed up
        Takin' dog very sick
        almost dead and very crazy
        You took a lot of help from me
        together up and going

        I found her, so keep that in your mind
        when you kiss her, I hope you understand
        How I miss her and how I'm the man
        who found her

        Not so really long ago
        told her everything she knows
        And I was out me, she really -
        - can exist all
        I made her like God
        I cannot make her just as well

        I found her, so keep that in your mind
        when you kiss her, I hope you understand
        How I miss her and how I'm the man
        who found her

        Hidin' underneath the rock, she was, she was
        that me tell you all messed up
        Takin' dog very sick
        almost dead and very crazy
        You took a lot of help from me
        together up and going

        I found her, so keep that in your mind
        when you kiss her, I hope you understand
        How I miss her and how I'm the man
        who found her

        I found her, so keep that in your mind
        when you kiss her, I hope you understand
        How I miss her and how I'm the man
        who found her

        I found her
        And I miss her
        got a ....

        I found her



* all the strings downtuned a whole-tone

 1d ----- * downtuned a whole-tone (from e to d)
 2A ----- * downtuned a whole-tone (from B to A)
 3F ----- * downtuned a whole-tone (from G to F)
 4C ----- * downtuned a whole-tone (from D to C)
 5G ----- * downtuned a whole-tone (from A to G)
 6D ----- * downtuned a whole-tone (from E to D)



intro    .x/Em.D}{D}

        {G}{G}{G.A/A}{A}
        {G}{G}{G.A/A}{A}

        {G}{G}{G.A/A}{A}   (Hidin' underneath the rock ...)
        {G}{G}{G.A/A}{A}   (Takin' dog very sick ...)
        {G}{G}{G.A/A}{A}   (You took a lot of help from me ...)

chorus  {D}{D}{D7}{D7}     (- found her, so keep that ...)
        {G}{Gm}{D}{E}      (- miss her and how I'm the man ...)

        {G}{G}{G.A/A}{A}   (Not so really long ago ...)
        {G}{G}{G.A/A}{A}   (And I was out me, she really ...)
        {G}{G}{G.A/A}{A}   (I made her like god ...)

chorus  {D}{D}{D7}{D7}     (- found her, so keep that ...)
        {G}{Gm}{D}{E}      (- miss her and how I'm the man ...)

g.solo  {G}{G}{G.A/A}{A}
        {G}{G}{G.A/A}{A}
        {G}{G}{G.A/A}{A}

        {G}{G}{G.A/A}{A}   (Hidin' underneath the rock ...)
        {G}{G}{G.A/A}{A}   (Takin' dog very sick ...)
        {G}{G}{G.A/A}{A}   (You took a lot of help from me ...)

chorus  {D}{D}{D7}{D7}     (- found her, so keep that ...)
        {G}{Gm}{D}{A/      (- miss her and how I'm the man ...)

chorus  {D}{D}{D7}{D7}     (- found her, so keep that ...)
        {G}{Gm}{D}{A}      (- miss her and how I'm the man ...)

coda    {D}{D}{D7}{D7}     (- found her, and I -)
        {G}{Gm}{D}{A}      (- miss her, got a ...)

        {D}{D}{D7}{D7}     (- found her)
        {G}{Gm}{D}{A}
        ... fade out




* intro (all the strings downtuned a whole-tone)

     .x/Em.D} {D}
*1d --x-0--2-------------------
*2A --x-0--3-------------------
*3F --x-0--2-------------------
*4C --x-2--0-------------------
*5G --x-2----------------------
*6D --x-0----------------------

 {G}                  {G}
---------14-12\10-10\9-9\7-7/9-9/10-10--
--8-/12---------------------------------
----------------------------------------
----------------------------------------
----------------------------------------
----------------------------------------

 {G      . A   / A}   {A}
--14^-12^-10^-9^----7^-5^---------------
----------------------------------------
--(- picking harmonics -)---------------
----------------------------------------
----------------------------------------
----------------------------------------

 {G}                  {G}
---------14-12\10-10\9-9\7-7/9-9/10-10--
--8-/12---------------------------------
----------------------------------------
----------------------------------------
----------------------------------------
----------------------------------------

 {G      . A   / A}   {A}
--14^-12^-10^-12^-------------------5/--
----------------------------------------
-(picking harmonics)--------------------
----------------------------------------
----------------------------------------
----------------------------------------

   Hidin' underneath the rock ...
  {G}          {G}
--/17-----------------------------------
----------------------------------------
----------------------------------------   ...
----------------------------------------
----------------------------------------
----------------------------------------




* solo (all the strings downtuned a whole-tone)

    ...  who found her
    ... {D}             {E}
*1d ---------------------------14-12\10-10--
*2A ---------------------5-/12--------------
*3F ---------------------------11--9\-7--7--
*4C ---------------------2-/-9--------------
*5G ----------------------------------------
*6D ----------------------------------------

 {G}                  {G}
---------14-12\10-10\9-9\7-7/9-9/10-10--
--8-/12---------------------------------
----------------------------------------
----------------------------------------
----------------------------------------
----------------------------------------

 {G      . A   / A}   {A}
--14^-12^-10^-9^------------------------
----------------------------------------
--(- picking harmonics -)---------------
----------------------------------------
----------------------------------------
----------------------------------------

 {G}                  {G}
---------14-12\10-10\9-9\7-7/12-12/10-10--
--8-/12-----------------------------------
------------------------------------------
------------------------------------------
------------------------------------------
------------------------------------------

 {G      . A   / A}       {A}
--15^-14^-12^-10^--12^-10-9^--12^-9^-7\5-5--
--------------------------------------------
--(------- picking harmonics -------)-------
--------------------------------------------
--------------------------------------------
--------------------------------------------

 {G}                  {G}
---------12-12/14--15-15/16--16-16/17--17--
--8-/12------------------------------------
-------------------------------------------
-------------------------------------------
-------------------------------------------
-------------------------------------------

 {G    . A   / A}    {A}
--17-15--14-12\10---7\5----------------5/--
-------------------------------------------
-------------------------------------------
-------------------------------------------
-------------------------------------------
-------------------------------------------

   Hidin' underneath the rock ...
  {G}          {G}
--/17-----------------------------------
----------------------------------------
----------------------------------------   ...
----------------------------------------
----------------------------------------
----------------------------------------



*** please note ***

h - hammer on
p - pull off
b - bend string up
r - release bend
/ - slide up
\ - slide down
v - vibrato
^ - harmonics




---------------------------------------------------------------------



* chords for standard-tuning



intro    .x/Dm.C}{C}

        {F}{F}{F.G/G}{G}
        {F}{F}{F.G/G}{G}

        {F}{F}{F.G/G}{G}   (Hidin' underneath the rock ...)
        {F}{F}{F.G/G}{G}   (Takin' dog very sick ...)
        {F}{F}{F.G/G}{G}   (You took a lot of help from me ...)

chorus  {C}{C}{C7}{C7}     (- found her, so so keep that ...)
        {F}{Fm}{C}{D}      (- miss her and how I'm the man ...)

        {F}{F}{F.G/G}{G}   (Not so really long ago ...)
        {F}{F}{F.G/G}{G}   (And I was out me, she really ...)
        {F}{F}{F.G/G}{G}   (I made her like God ...)

chorus  {C}{C}{C7}{C7}     (- found her, so keep that ...)
        {F}{Fm}{C}{D}      (- miss her and how I'm the man ...)

g.solo  {F}{F}{F.G/G}{G}
        {F}{F}{F.G/G}{G}
        {F}{F}{F.G/G}{G}

        {F}{F}{F.G/G}{G}   (Hidin' underneath the rock ...)
        {F}{F}{F.G/G}{G}   (Takin' dog very sick ...)
        {F}{F}{F.G/G}{G}   (You took a lot of help from me ...)

chorus  {C}{C}{C7}{C7}     (- found her, so keep that ...)
        {F}{Fm}{C}{G/      (- miss her and how I'm the man ...)

chorus  {C}{C}{C7}{C7}     (- found her, so keep that ...)
        {F}{Fm}{C}{G}      (- miss her and how I'm the man ...)

coda    {C}{C}{C7}{C7}     (- found her, and I -)
        {F}{Fm}{C}{G}      (- miss her, got a ...)

        {C}{C}{C7}{C7}     (- found her)
        {F}{Fm}{C}{G}
        ... fade out




*********************************************************************
transcribed by Shiroh KOUCHI (wildside@mx21.tiki.ne.jp)
http://ww21.tiki.ne.jp/~wildside/
*********************************************************************