============================================
"Fired Up"
============================================
album _I Spent A Week There The Other Night_
(Moe Tucker, 1991)

written by Moe Tucker

Lou Reed: lead guitar
============================================


        I'm fired up, pissed off
        I'm tired and I'm mad

        I work hard, get nowhere
        lousy job and no one cares

        Drugs and crime, flashin' knives
        violent people, wasted lives

        Go away and don't stop
        don't knock, the door's locked

        High price won't pay
        worry worry every day

        Homeless families in the streets
        no one help them on their feet

        They can't read, they can't spell
        what about welfare, what the hell

        Close the door and lock it tight
        hit the floor, keep from sight

        Drug dealers gettin' richer
        drug babies havin' seizures

        You and me, what I see
        living life is when we're free

        I'm fired up, pissed off
        I'm tired and I'm mad
        I'm fired up, pissed off
        I'm tired and I'm mad
        Fired up, pissed off
        I'm tired and I'm mad

        Go away and don't stop
        don't knock, the door's locked




intro   {D/G.C}{G}{D/G.C}{G}
        {D/G.C}{G}{D/G.C}{G}
        {D/G.C}{G}             drums

        {E/A.{E/A.{E}          (I'm fired up, pissed off ...)
        {D/G.C}{G}
        {E/A.{E/A.{E}          (I work hard, get nowhere ...)
        {D/G.C}{G}
        {E/A.{E/A.{E}          (Drugs and crime, flashin' ...)
        {D/G.C}{G}{D/G.C}{G}

guitar  {E}{E}{E}{E}
        {E}{E}{E}{E}
        {E}{E}{E}{E}
        {E}{E}{E}

        {E}{E}                 (Go away and don't stop ...)
        {D/G.C}{G}{D/G.C}{G}

        {E/A.{E/A.{E}          (High price won't pay ...)
        {D/G.C}{G}
        {E/A.{E/A.{E}          (Homeless families in the ...)
        {D/G.C}{G}
        {E/A.{E/A.{E}          (They can't read, they can't ...)
        {D/G.C}{G}{D/G.C}{G}

guitar  {E}{E}{E}{E}
        {E}{E}{E}{E}
        {E}{E}{E}{E}
        {E}{E}{E}{E}
        {E}{E}{E}{E}
        {E}{E}{E}{E}
        {E}{E}{E}{E}
        {E}{E}

        {E}{E}                 (Close the door and lock it ...)
        {D/G.C}{G}{D/G.C}{G}

        {E/A.{E/A.{E}          (Drug dealers gettin' richer ...)
        {D/G.C}{G}
        {E/A.{E/A.{E}          (You and me, what I see ...)
        {D/G.C}{G}
        {E/A.{E/A.{E}          (I'm fired up, pissed off ...)
        {E/A.{E/A.{E}          (I'm fired up, pissed off ...)
        {E/A.{E/A.{E}          (Fired up, pissed off ...)

guitar  {E}{E}{E}{E}
        {E}{E}{E}{E}
        {E}{E}{E}{E}
        {E}{E}{E}{E}
        {E}{E}{E}{E}
        {E}{E}{E}{E}

        {E}{E}                 (Go away and don't stop ...)




* intro
       __  __   __  __    __  __   __  __
      / / / /  / / / /   / / / /  / / / /
     {D      / G  .C}   {G}
 1e -----------3-3-------3---3-3--3-3-3-x--
 2B --7---7-x--3-3-5-3---3---3-3--3-3-3-x--
 3G --7---7-x--4-4-5-3---4---4-4--4-4-4-x--
 4D --7---7-x--5-5-5-3---5---5-5--5-5-5-x--
 5A --5---5-x--5-5-3-3---5---5-5--5-5-5-x--
 6E -----------3-3-------3---3-3--3-3-3-x--

   __  __   __  __    __  __   __  __
  / / / /  / / / /   / / / /  / / / /
 {D      / G  .C}   {G}
-----------3-3-------3---3-3--3-3-3-x--
--7---7-x--3-3-5-3---3---3-3--3-3-3-x--
--7---7-x--4-4-5-3---4---4-4--4-4-4-x--   ...
--7---7-x--5-5-5-3---5---5-5--5-5-5-x--
--5---5-x--5-5-3-3---5---5-5--5-5-5-x--
-----------3-3-------3---3-3--3-3-3-x--




* verse
       __  __   __    __  __   __    __  __   __  __
      / / / /  / /   / / / /  / /   / / / /  / / / /
     {E      / A.   {E      / A.   {E}
 1e --0-0-0-0--------0-0-0-0--------0-0-0-0--0-0-0-0--
 2B --0-0-0-0--2-x---0-0-0-0--2-x---0-0-0-0--0-0-0-0--
 3G --1-1-1-1--2-x---1-1-1-1--2-x---1-1-1-1--1-1-1-1--
 4D --2-2-2-2--2-x---2-2-2-2--2-x---2-2-2-2--2-2-2-2--
 5A --2-2-2-2--0-x---2-2-2-2--0-x---2-2-2-2--2-2-2-2--
 6E --0-0-0-0--------0-0-0-0--------0-0-0-0--0-0-0-0--

   __  __   __  __    __  __   __  __
  / / / /  / / / /   / / / /  / / / /
 {D      / G  .C}   {G}
-----------3-3-------3---3-3--3-3-3-x--
--7---7-x--3-3-5-3---3---3-3--3-3-3-x--
--7---7-x--4-4-5-3---4---4-4--4-4-4-x--   ...
--7---7-x--5-5-5-3---5---5-5--5-5-5-x--
--5---5-x--5-5-3-3---5---5-5--5-5-5-x--
-----------3-3-------3---3-3--3-3-3-x--




*********************************************************************
---------------------------------------------------------------------
thanks: Dima Darin (darin@gtn.ru)
---------------------------------------------------------------------


"Fired Up"

I'm fired up, pissed off
I'm tired and I'm mad
I work hard, get nowhere
Lousy job and no one cares
Drugs and crime, flashin' knives
Violent people, wasted lives

Go away and don't stop
Don't knock, the door's locked

High price won't pay
Worry worry every day
Homeless families in the streets
No one help them on their feet
They can't read, they can't spell
What about welfare, what the hell

Close the door and lock it tight
Hit the floor, keep from sight

Drug dealers gettin' richer
Drug babies havin' seizures
You and me, what I see
Living life is when we're free

I'm fired up, pissed off
I'm tired and I'm mad
I'm fired up, pissed off
I'm tired and I'm mad
I'm fired up, pissed off
I'm tired and I'm mad.

Go away and don't stop
Don't knock, the door's locked


---------------------------------------------------------------------
*********************************************************************
chords/tabs transcribed by Shiroh KOUCHI (wildside@mx21.tiki.ne.jp)
http://ww21.tiki.ne.jp/~wildside/
*********************************************************************