==================================
"Dominating Force"
==================================
album _Wild Angel_
(Nelson Slater, 1976)

written by Nelson Slater

Lou Reed:
produce, guitar, background vocals
==================================


        Darling, where
        is there an answer to my question
        Here or there
        you know that I've learned my lesson

        'Cause my love just waits to know
        which way the wind of fortune will blow

        It's up to the one whose love is true
        dominating force, it's your choice

        Meaning who
        is going to be in the next chapter
        Her or you
        you know the words I'm after

        If we awake before it's too late
        we won't have to leave the answer to fate

        It's up to the one whose love is true
        dominating force, it's your choice

        'Cause my love just waits to know
        which way the wind of fortune gonna blow

        It's up to the one whose love is true
        dominating force, it's your choice
        It's up to the one whose love is true
        dominating force, it's your choice
        It's up to the one whose love is true
        dominating force, it's your choice



intro    x}                            drums
        {A}{A}{A}{A}

        {Amaj7}{Dmaj7}{Amaj7}{Dmaj7}   (Darling, where ...)
        {Amaj7}{Dmaj7}{Amaj7}{Dmaj7}   (Here or there ...)

        {Amaj7/E(onG#)}{F#m/E}{D}{E}   (- my love just waits ...)

chorus  {A}{D}{F}                      (It's up to the one ...)

        {A}{A}{A}{A}                   (- choice)

        {Amaj7}{Dmaj7}{Amaj7}{Dmaj7}   (Meaning who ...)
        {Amaj7}{Dmaj7}{Amaj7}{Dmaj7}   (Her or you ...)

        {Amaj7/E(onG#)}{F#m/E}{D}{E}   (- awake before it's too ...)

chorus  {A}{D}{F}                      (It's up to the one ...)

        {A}{A}{A}{A}                   (- choice)

sax     {Amaj7}{Dmaj7}{Amaj7}{Dmaj7}
        {Amaj7}{Dmaj7}{Amaj7}{Dmaj7}   ('Cause my -)

        {Amaj7/E(onG#)}{F#m/E}{D}{E}   (- love just waits to ...)

chorus  {A}{D}{F}{A}                   (It's up to the one ...)
        {A}{D}{F}{A}                   (It's up to the one ...)
        {A}{D}{F}                      (It's up to the one ...)

        {A}{A}{A}{A}                   (- choice)
        {A... fade out




* intro

     {A}                {A}
 1e ------7-7--7---5------------------------
 2B ------5-5--5---5------------------------
 3G ------6-6--6---6------------------------
 4D ------7-7--7---7------------------------
 5A --0-------------------------------------
 6E ----------------------------------------

 {A}                {A}
------7-7--7---5------------------------
------5-5--5---5------------------------
------6-6--6---6------------------------
------7-7--7---7------------------------
--0-------------------------------------
----------------------------------------



* verse

             Darling,   where
     {Amaj7}            {Dmaj7}
 1e --4------------------9-----------------
 2B ---5------------------10---------------
 3G ----6-------------------11-------------
 4D ---------------------------------------
 5A ---------------------------------------
 6E ---------------------------------------

 is there an answer to my question
 {Amaj7}            {Dmaj7}
--4------------------9-----------------
---5------------------10---------------
----6-------------------11-------------
---------------------------------------
---------------------------------------
---------------------------------------

          Here or   there
 {Amaj7}            {Dmaj7}
--4------------------9-----------------
---5------------------10---------------
----6-------------------11-------------
---------------------------------------
---------------------------------------
---------------------------------------

you know that I've learned my lesson,    'Cause my -
 {Amaj7}            {Dmaj7}
--4------------------9-----------------
---5------------------10---------------
----6-------------------11-------------
---------------------------------------
---------------------------------------
---------------------------------------

- love just waits to know,           which -
 {Amaj7 /  E(onG#)} {F#m    /  E}
--4---4----4---4-----2---2-----0---0---
--5---5----5---5-----2---2-----0---0---
--6---6----4---4-----2---2-----1---1---
--7---7----6---6-----4---4-----2---2---
---------------------------------------
---------------------------------------

- way the wind of fortune will blow
 {D}                {E}
--------------------------------------------------------
--7---7----7---7-----9h10p9--9--------------------------
--7---7----7---7-----9-------9------------9--9----------
--7---7----7---7-----9-------9h11p9-------9--9h11p9-----
--5---5----5---5---------------------9h11-----------11--
--------------------------------------------------------

....



*** please note ***

h - hammer on
p - pull off
b - bend string up
r - release bend
/ - slide up
\ - slide down
v - vibrato
^ - harmonics




*********************************************************************
transcribed by Shiroh KOUCHI (wildside@mx21.tiki.ne.jp)
http://ww21.tiki.ne.jp/~wildside/
*********************************************************************