============================
"Chooser And The Chosen One"
(instrumental)
============================
album _Rock And Roll Heart_
(Lou Reed, 1976)

composed by Lou Reed
============================



sax.    {Asus2}{Asus2}{A}{A}
        {Asus2}{Asus2}{A}{A}
        {Asus2}{Asus2}{A}{A}
break   {Asus2}{Asus2}{A...

        {E}{E}{A}{A}            * tab1
        {E}{E}{A}{A}            * tab1

sax.    {D}{D}{A}{A}            * tab2
        {D}{D}{A}{E}            * tab3
        {A}{E}

        {E}{E}{E}{E}
        {E}{E}{E}{E}

        {A}{A}{A}{A/E}          * tab4
        {A}{A}{A}{A/E}          * tab4

sax.    {D}{D}{A}{A}            * tab2
        {D}{D}{A}{E}            * tab3
        {A}{E}

sax.    {Asus2}{Asus2}{A}{A}
        {Asus2}{Asus2}{A}{A}
        {Asus2}{Asus2}{A}{A}
        {Asus2}{Asus2}{A...




* Asus2 chords

 1e -------
 2B ---0---
 3G ---2---
 4D ---2---
 5A ---0---
 6E -------




* tab1

      {E}               {E}
 1e --------------------------------------
 2B --------------------------------------
 3G --------------------------------------
 4D --------------------------------------
 5A --------------------------------------
 6E --------------------------------------

 {A}              {A}
-----12---10--9----12---10--10----9---
-----10---10-10----10---10--10---10---
------9----9--9-----9----9---9----9---
--------------------------------------
--------------------------------------
--------------------------------------




* tab2

     {D}       {D}       {A}               {A}
 1e --2...------2...-----12--12-10----9----12--12-10----9---
 2B --3...------3...-----10--10-10---10----10--10-10---10---
 3G --2...------2...------9---9--9----9-----9---9--9----9---
 4D --0...------0...----------------------------------------
 5A --------------------------------------------------------
 6E --------------------------------------------------------




* tab3

     {D}       {D}      {A}                 {E}
 1e --2...------2...-----12---12-10--9---9---7-------
 2B --3...------3...-----10---10-10-10--10---9-------
 3G --2...------2...------9----9--9--9---9---9-------
 4D --0...------0...---------------------------------
 5A -------------------------------------------------
 6E -------------------------------------------------

  {A}                {E}
--12---12-10--9---9---7-------
--10---10-10-10--10---9-------
---9----9--9--9---9---9-------
------------------------------
------------------------------
------------------------------




* tab4

      {A}                              {A}
 1e ---9h10p9--9h10p9--9h10p9--9h10p9---9h10p9---9--12-----
 2B --10------10------10------10-------10-------10--10-----
 3G ---9-------9-------9-------9--------9--------9---9-----
 4D -------------------------------------------------------
 5A -------------------------------------------------------
 6E -------------------------------------------------------

  {A}                             {A         /  E}
---9h10p9--9h10p9--9h10p9--9h10p9--9h10p9---9---7-----
--10------10------10------10------10-------10---9-----
---9-------9-------9-------9-------9--------9---9-----
------------------------------------------------------
------------------------------------------------------
------------------------------------------------------



*** please note ***

h - hammer on
p - pull off
b - bend string up
r - release bend
/ - slide up
\ - slide down
v - vibrato
^ - harmonics




*********************************************************************
transcribed by Shiroh KOUCHI (wildside@mx21.tiki.ne.jp)
http://ww21.tiki.ne.jp/~wildside/
*********************************************************************