=====================================================
"Booker T."
(live/instrumental)
=====================================================
album _Paris S'Eveille - Suivi D'Autres Compositions_
(John Cale, 1991)
* edited version

CDEP "Paris S'Eveille"
(John Cale, 1991)
* long version

album _Paris S'Eveille - Suivi D'Autres Compositions_
Japanese edition CD bonus track
(John Cale, 1992)
* long version

box set _Peel Slowly And See_
(The Velvet Underground, 1995)
* long version

album _Psychedelic Sounds From The Gymnasium_
(The Velvet Underground, 2008)
* long version

written by
Lou Reed/John Cale/Sterling Morrison/Maureen Tucker

April 1967
The Gymnasium, NYC
=====================================================



* all the strings downtuned a whole-tone

 1d ----- * downtuned a whole-tone (from e to d)
 2A ----- * downtuned a whole-tone (from B to A)
 3F ----- * downtuned a whole-tone (from G to F)
 4C ----- * downtuned a whole-tone (from D to C)
 5G ----- * downtuned a whole-tone (from A to G)
 6D ----- * downtuned a whole-tone (from E to D)



        fade in ... {E7}
        {B7}{A7}{E7}{E7}

        {E7}{E7}{E7}{E7}
        {A7}{A7}{E7}{E7}
        {B7}{A7}{E7}{E7}

solo    {E7}{E7}{E7}{E7}
        {A7}{A7}{E7}{E7}
        {B7}{A7}{E7}{E7}

        .... repeat



* chords (all the strings downtuned a whole-tone)

       E7         A7          B7
*1d -------     -------     -------
*2A -------     -------     -------
*3F ---7---     ---6---     ---8---
*4C ---6---     ---5---     ---7---
*5G ---7---     ---4---     ---6---
*6D -------     ---5---     ---7---




* ad lib: scale (all the strings downtuned a whole-tone)

        0   1   2   3   4   5  ....     12  13  14  15  16  17
*1d -o-||---|---|-o-|---|-o-|- .... -|-o-|---|-o-|-o-|---|-o-|-
*2A -o-||---|-o-|-o-|---|-o-|- .... -|-o-|---|-o-|-o-|---|-o-|-
*3F -o-||---|-o-|---|-o-|---|- .... -|-o-|-o-|-o-|---|-o-|---|-
*4C -o-||---|-o-|---|---|---|- .... -|-o-|---|-o-|---|---|---|-
*5G ---||---|-o-|---|---|---|- .... -|-o-|---|-o-|---|---|---|-
*6D ---||---|---|---|---|---|- .... -|---|---|---|---|---|---|-




* solo: using different notes from upper scale
(all the strings downtuned a whole-tone)

    {B7}           {A7}           {E7}          {E7}
*1d --------------------------------------------------------------
*2A --------------------------------------------------------------
*3F ------.... etc ....--------------------------------------7/9--
*4C --------------------------------------------------------------
*5G --------------------------------------------------------------
*6D --------------------------------------------------------------

 {E7}           {E7}          {E7}           {E7}
--9----7----5----4-------0---------4----2----0----0----0----------
------------------------------------------------------------------
-----7----6----4-----0h1------2/4-----2----1----1----1-------4/6--
------------------------------------------------------------------
------------------------------------------------------------------
------------------------------------------------------------------

 {A7}        {A7}          {E7}           {E7}
--5----5--------9----7-----4----0----0-----0--------0---
-----------------------------------------0-----3v-------
-----6----6/7/9----7-----4----0----1--------------------   ... etc
--------------------------------------------------------
--------------------------------------------------------
--------------------------------------------------------



*** please note ***

h - hammer on
p - pull off
b - bend string up
r - release bend
/ - slide up
\ - slide down
v - vibrato
^ - harmonics




---------------------------------------------------------------------



* chords for standard-tuning



        fade in ... {D7}
        {A7}{G7}{D7}{D7}

        {D7}{D7}{D7}{D7}
        {G7}{G7}{D7}{D7}
        {A7}{G7}{D7}{D7}

solo    {D7}{D7}{D7}{D7}
        {G7}{G7}{D7}{D7}
        {A7}{G7}{D7}{D7}

        .... repeat



* chords (standard-tuning)

       D7         G7          A7
 1e -------     -------     -------
 2B -------     -------     -------
 3G ---5---     ---4---     ---6---
 4D ---4---     ---3---     ---5---
 5A ---5---     ---2---     ---4---
 6E -------     ---3---     ---5---




*********************************************************************
transcribed by Shiroh KOUCHI (wildside@mx21.tiki.ne.jp)
http://ww21.tiki.ne.jp/~wildside/
*********************************************************************